Oops, an error
Loading. Please wait.

Vendetta bass

version 1
version 1

Whole song

3,607 views 1 this week
1 commentread comment
1 2 3 4 5
x 3
add to favorites
×
Save as Personal and add changes to this tab that will be seen only by you. Learn more ›
×
You can save this tab as Personal to edit and correct it or add notes. All changes will be seen only by you. Learn more »
launch autoscroll
font size
0
reset
guitar tuner
edit
Autoscroll
slow
fast
+/-
esc
set tempo
stop
Author
INTRO:
||*------------------------|-------------------------|
||*------------------------|-------------------------|
||-------------------------|-------------------------|
||---0--3----2--5----3--6--|--0--3----2--5\----------|
<                      Trem. pick                    >

---------------------------||
---------------------------||
---------------------------||
--0--0--0--0--0--0--0--0---||

|---------------------------|-------------------------|
|---4--7----6--9----7--10\--|--4--7----6--9\----------|
|---------------------------|-------------------------|
|---------------------------|-------------------0-0---|

---------------------------||
---------------------------||
---------------------------||
--0--0--0--0--0--0--0--0---||

---------------------------------------------------|
---------------------------------------------------|
---------------------------------------------------|
--0--0--0--0--0--0--0--0-0-0--0--0--0--0--0--0--0--|

----------------------------------------------------|
----------------------------------------------------|
----------------------------------------------------|
--0--0--0-0-0--0--0--0--0--0--0--0--0--0--0-0-0--0--|

VERSE 1:
--------------------------------------------------|
--------------------------------------------------|
--------------------------------------------------|
--12\--0--0-0-0--1p0--0--0--0-0-0--3/4\3--0--0-0--|

-----------------------------------------------|
-----------------------------------------------|
--------------8\7-7/10-10-10-------------------|
--0--1p0-0-------------------0--0--0--0--1p0-0-|

---------------------------------------------------|
---------------------------------------------------|
-----------------------------------10\-8--8--8\7-7-|
--0--0-0-0--3/4\3-0--0-0-0--1p0-0------------------|

---------------------------------------------|
---------------------------------------------|
---------------------------------------------|
--0--0-0-0--1p0--0--0--0-0-0--3/4\3--0--0-0--|

-----------------------------------------------|
-----------------------------------------------|
--------------8\7-7/10-10-10-------------------|
--0--1p0-0-------------------0--0--0--0--1p0-0-|

---------------------------------------------------|
---------------------------------------------------|
-----------------------------------10\-8--8--8\7-7-|
--0--0-0-0--3/4\3-0--0-0-0--1p0-0------------------|

---------------------------------------------|
---------------------------------------------|
---------------------------------------------|
--0--0-0-0--1p0--0--0--0-0-0--3/4\3--0--0-0--|

-----------------------------------------------|
-----------------------------------------------|
--------------8\7-7/10-10-10-------------------|
--0--1p0-0-------------------0--0--0--0--1p0-0-|

------------------------------------------------|
------------------------------------------------|
-----------------------------------10\-8--8--8\-|
--0--0-0-0--3/4\3-0--0-0-0--1p0-0---------------|

PLAY INTRO AGAIN
PLAY VERSE AGAIN

BRIDGE:
|---------------------------------------------
|---------------------------------------------
|--------------------------------------8-7-6-7
|--0--2--3--5--3--5--6--5--3--5--3--2---------

-------------------||
-------------------||
--6-5-6-5-4-5-4-3--||
-------------------||

CHORUS:
-----------------------------|---------------------------|
-----------------------------|---------------------------|
-----------------------------|---------------------------|
--12\--0--0--6---5---3~---0--|--0-8---7---1~---0--0--6---|

----------------------------|-------------------------------|
----------------------------|-------------------------------|
----------------------------|-------------------------------|
--5---3~---0--0--3---2---1~-|----\--0--0--6----5----3~---0--|

---------------------------|-----------------------------||
---------------------------|-----------------------------||
---------------------------|-----------------------------||
--0-8---7---1~---0--0--6---|--5---3~---0--0--3---2-------||

PLAY INTRO
PLAY VERSE
PLAY BRIDGE

CHORUS 2:
------------------------|
------------------------|
------------------------|
--0--0--6---5---3~---0--|

------------------------------|-----------------------------|
------------------------------|-----------------------------|
------------------------------|-----------------------------|
--5---3~---0--0--3---2--------|-----0-----6----5----3~---0--|

---------------------------|----------------------------|
---------------------------|----------------------------|
---------------------------|----------------------------|
--0-8---7---1~---0--0--6---|--5---3~---0--0--3---2---1~-|
 
||--------------------------|-----------------------------|
||--------------------------|-----------------------------|
||--------------------0-----|-----------------------------|
||--0--0--6---5----------0--|--0-8---7----------0--0--6---|

--------------------------------||
--------------------------------|| x2
----------0-----3---2-----1~----||
--5----------0-----3---2--------||

BREAKDOWN:
------------------------------------|----------------------------------|
------------------------------------|----------------------------------|
------------------------------------|----5-----3-----5\3/6-------------|
--/3~---0--3--2----/3--/3--0--3--2--|-------0-----0--------1--0--3--2--|

----------------------------------||
----------------------------------|| 
-------------------3-----3--------||
--/3--/3--0--3--2-----0-----4--3--||

PLAY INTRO
PLAY BRIDGE ONLY ONCE
PLAY CHORUS
PLAY BREAKDOWN

Suggest correction
Creating personal tab
Creating personal tab
You can edit any tab online and save it as your Personal.

You can edit, replace or remove any tab part or add personal notes – all changes will be seen only by you.

Personal tabs can be accessed anytime from any device, even offline.
Learn more »
Give kudos to tab author, rate the tab!
1 2 3 4 5
comments
print report bad tab
1 comment total.
0 reply
EBass 50 Jul 28, 2010 02:55 PM

No tuning dude...

guest
You may want to rate the tab now too:
select rating
Wanna post a correction for this tab? Suggest correction