Oops, an error
Loading. Please wait.

Vermilion Part 2 Bass Tab

version 1
version 1

Whole song

Interactive

14,581 views 18 this week
7 commentsread comments
1 2 3 4 5
x 28
add to favorites
launch autoscroll
font size
0
reset
guitar tuner
×
Best way to learn
"Vermilion Part 2"
Autoscroll
slow
fast
+/-
esc
set tempo
stop
Author
----------------------------------------------------------------------------
			     Vermillion part 2 - Slipknot
----------------------------------------------------------------------------

Tabbed By : Mannn 
e-mail: Crazy_guitar66@yahoo.com

Tuning:eadg

G|--------------------------------------------------------|
D|--------------------------------------------------------| intro/verse
A|----------------7-----6----6h7--------------------------| 
E|----4-----6----------------------7-P-6------------------|

G|-----------------------------------------|
D|-----------------------------------------|  (i dont know what to do
A|------7----7-----7------7--7-------------|   when she makes me sad)
E|-----------------------------------------|

G|----------------------------------------|
D|----------------------------------------|  right after he say sad
A|----------------------------------------|
E|-----7---7-----7--7---7---------7-------|

G|----------------------------------------|
D|----------------------------------------| (i wont let this build up
A|----------------------------------------|     inside of me) thats a ten
E|-3------5-------7----------10-----------|                  
 
G|----------------------------------------|
D|----------------------------------------|
A|----------------------------------------|
E|----7--------7---7---------7---7------7-|


please rate this..... have fun
Suggest correction
comments
print report bad tab
7 comments total. Showing first comments.
0 reply
Dorito 20 Dec 09, 2005 06:46 AM

Sounds like its missing some parts.

-1 reply
izenhahn 10 Dec 13, 2005 09:41 PM

Try my chorus
G|------------------------------|
D|------------------------------|
A|------------------9-------5---|
E|-3------5---------------------|

+1 reply
izenhahn 10 Dec 13, 2005 09:49 PM

the verse
G|------------------------
D|------------------------
A|----------7----6-6------
E|-4---6-------------7>>as many times as you feel

guest
You may want to rate the tab now too:
select rating
Wanna post a correction for this tab? Suggest correction