Oops, an error
Loading. Please wait.

Vermilion Part 2 Acoustic tab

version 10
version 10

Whole song

Interactive

105,859 views 444 this week
3 commentsread comments
1 2 3 4 5
x 23
add to favorites
×
Save as Personal and add changes to this tab that will be seen only by you. Learn more ›
×
You can save this tab as Personal to edit and correct it or add notes. All changes will be seen only by you. Learn more »
launch autoscroll
font size
0
reset
how to read this tab
guitar tuner
edit
Autoscroll
slow
fast
+/-
esc
set tempo
stop
Author
Difficulty
intermediate
Vermilion PT.2 - Slipknot   by dilie1992

STANDARD TUNING E A D G B e


E|---------------------------------------------------|
B|---------------------------------------------------|
G|---------------------------------------------------|
D|-6-6-6-8-8-8---------------------------------------|
A|-6-6-6-6-6-6-7-7-7-6-6-6-6-7----6---6--------------|
E|-4-4-4-4-4-4-4-4-4-4-4-4-4-4----4---4--------------|
   D D D D D D D D D D D D D D    D   D

E|---------------------------------------------------|
B|---------------------------------------------------|
G|--4-4-4-4-4-4-4-4-4-4-4-4-4-4-4-4------------------|
D|--4-4-4-4-4-4-4-4-4-4-4-4-4-4-4-4------------------|
A|--2-2-2-2-2-2-2-2-1-1-1-1-1-1-1-1------------------|
E|---------------------------------------------------|
    D U D U D U D U D U D U D U D U

now strum A chord

A    D D U U D   D U D U D    D U D U D    D U D U D

E|---------------------------------------------------|
B|---------------------------------------------------|
G|--4-4-4-4-4----4-4-4-4-4--4-4----------------------|
D|--4-3-3-3-3----3-3-3-3-3--3-3----------------------|
A|--2-2-2-2-2----2-2-2-2-2--2-2----------------------|
E|---------------------------------------------------|
    D D U D U    D D U D U  D U



other chord
GM7 F# Bm11 D5(6/9)
2   2    0    0
0   2    3    0
0   3    4    7
0   4    4    7
x   4    2    5
3   2    x    x


        G7M            F#         Bm11      D5(6/9)
 But I won't let this build up inside of me     (3x)      arpeggio
        G7M            F#         Bm11
 But I won't let this build up inside of me

E|---------------------------------------------------|
B|----3---3------3---3------3---3------3---3---------|
G|------6---6------6---6------6---6------6---6-------|   (3x)
D|--5----------4---------------------0---------------|
A|------------------------2--------------------------|
E|---------------------------------------------------|

E|---------------------------------------------------|
B|----3---3------3---3------3---3--------------------|
G|------6---6------6---6------6---6------------------|
D|--5----------4-------------------------------------|
A|------------------------2--------------------------|
E|---------------------------------------------------|

            
            
Suggest correction
Creating personal tab
Creating personal tab
You can edit any tab online and save it as your Personal.

You can edit, replace or remove any tab part or add personal notes – all changes will be seen only by you.

Personal tabs can be accessed anytime from any device, even offline.
Learn more »
comments
print report bad tab
3 comments total.
+5 reply
dilie1992 78 Jun 20, 2013 10:12 AM

hey guys do you like this tab?

+3 reply
mystikal15 10 Aug 26, 2013 04:05 AM

This is the best one, thank you!

+3 reply
mystikal15 10 Aug 26, 2013 04:06 AM

And I think it's the only one in standard.

guest
You may want to rate the tab now too:
select rating
Wanna post a correction for this tab? Suggest correction