Oops, an error
Loading. Please wait.

Vermilion Part 2 Tab

version 8
version 8

Whole song

Interactive

9,211 views 3 this week
6 commentsread comments
1 2 3 4 5
x 7
add to favorites
launch autoscroll
font size
0
reset
how to read this tab
guitar tuner
×
Best way to learn
"Vermilion Part 2"
Autoscroll
slow
fast
+/-
esc
set tempo
stop
Author
-----------------------------------------------------------------------------
                             Vermilion pt2-SLIPKNOT
-----------------------------------------------------------------------------
Tabbed by:daz
Email:aka_daz@hotmail.com
PLZ TELL ME WHAT U THINK ;)

Tuning:standard
Intro/verse
Guitar1
e|--------------------------------------------------------------------------|
B|--------------------------------------------------------------------------|
G|--1--3--4-----------------------------------------------------------------|
D|-----------1—1h2p1----4-4-4-4-4-4-----------------------------------------|
A|--------------------0-2-2-2-2-2-2-----------------------------------------|
E|--------------------------------------------------------------------------|
Guitar2
e|--------------------------------------------------------------------------|
B|--------------------------------------------------------------------------|
G|--------------------------------------------------------------------------|
D|---------------------2-2-2-2-2-2------------------------------------------|
A|--2-2-2-2-2-2-2-2-2--4-4-4-4-4-4------------------------------------------|
E|--4-4-4-4-4-4-4-4-4-------------------------------------------------------|
Chorus
Guitars1&2
e|--------------------------------------------------------------------------|
B|--------------------------------------------------------------------------|
G|--------------------------------------------------------------------------|
D|--2-2-2-2-2-2--4-4-4-4-4-4-4-4-4------------------------------------------|
A|--0-0-0-0-0-0--2-2-2-2-2-2-2-2-2------------------------------------------|
E|--------------------------------------------------------------------------|
(I won't let this build up...)
Guitar1
e|-----2-3-2-0---2-3-2-0----2-3-2-0-----------------------------------------|
B|---2---------2----------2-------------------------------------------------|
G|--------------------------------------------------------------------------|
D|--------------------------------------------------------------------------|
A|--------------------------------------------------------------------------|
E|--------------------------------------------------------------------------|
Not sure 'bout this bit
Guitar 2
e|----0----------0----------0-----------------------------------------------|
B|--0---2-3-2--0---2-3-2--0---2-3-2-----------------------------------------|
G|--------------------------------------------------------------------------|
D|--------------------------------------------------------------------------|
A|--------------------------------------------------------------------------|
E|--------------------------------------------------------------------------|
Ending
Both guitars
e|--------------------------------------------------------------------------|
B|----------17--16----------------------------------------------------------|
G|--13--15------------------------------------------------------------------|
D|--------------------------------------------------------------------------|
A|--------------------------------------------------------------------------|
E|--------------------------------------------------------------------------|


| /  slide up
| \  slide down
| h  hammer-on
| p  pull-off
| ~  vibrato
| +  harmonic
| x  Mute note
=============================================================================
Suggest correction
comments
print report bad tab
6 comments total. Showing first comments.
0 reply
Preszombie 70 Nov 16, 2004 07:00 PM

that is so completely wrong. Sorry dude.

0 reply
aka_daz 30 Nov 17, 2004 07:00 PM

hello

0 reply
aka_daz 30 Nov 17, 2004 07:00 PM

baby if ur there i love u wether we're 2gether or not

guest
You may want to rate the tab now too:
select rating
Wanna post a correction for this tab? Suggest correction