Oops, an error
Loading. Please wait.

Vermilion Part 2 tab

version 9
version 9

Whole song

Interactive

19,618 views 6 this week
2 commentsread comments
1 2 3 4 5
x 6
add to favorites
×
Save as Personal and add changes to this tab that will be seen only by you. Learn more ›
×
You can save this tab as Personal to edit and correct it or add notes. All changes will be seen only by you. Learn more »
launch autoscroll
font size
0
reset
how to read this tab
guitar tuner
edit
Autoscroll
slow
fast
+/-
esc
set tempo
stop
Vermilion Pt. 2

Drop D tuning 1 1/2 steps:
(low to high) B-F#-B-E-G#-C#


Intro
(Guitar 1 Acous.)
|----------|----------|--------|------|
|----------|----------|--------|------|
|-4--------|----------|--------|------|
|-----6----|----------|--------|------|
|--------5-|-(5)\4----|--------|------|
|----------|----------|-0------|------|
|
|
(Guitar 2 Acous.)
|-------------------------------------|
|-------------------------------------|
|-------------------------------------|
|-12---12-------12---12---12---12-----|
|-9----9----9---9----9----9----10-----|
|-9---------9---11---11--------9----9-|
|                                     |
|                                     |
|-------------------------------------|
|-------------------------------------|
|-------------------------------------|
|------12-------12---12---12---12---0-|
|-10---9----9---9----9----10---9----0-|
|-9----9----9--------9----9----9------|
|                                     |
|                                     |
|-------------------------------------|
|-------------------------------------|
|-7----------7-----7-----7---------7--|
|-x----------x-----x-----x---------x--|
|-5-----5----5-----5-----5-----5---5--|
|-0-----0----0-----0-----------0------|
|                                     |
|                                     |
|-------------------------------------|
|-------------------------------------|
|-7-----7----7-----7-----7-----7---0--|
|-x-----x----x-----x-----x-----x---0--|
|-5\4---4----4-----4-----4-----4---0--|
|-------0----------0-----------0------|





(Guitar 1 Acous.)  When she makes me...
|----------|-------|-------|----------|
|-1--------|-------|-------|------5---|
|-0--------|-------|-------|------2---|
|-2--------|-------|-------|----------|
|-3--------|-------|-------|----------|
|----------|-------|-------|----------|
|
|
(Guitar 2 Acous.)
|-------0----0------------------------|
|---1---1----1------------------------|
|---0---0-----------------------------|
|---2---2-----------------------------|
|---3---------------------------------|
|-------------------------------------|
|                                     |
|                                     |
|-------------------------------------|
|-1--------1------1------1------1-----|
|-0--------0------0------0------0-----|
|-2--------2------2------2------2-----|
|-3--------3------3------3------3-----|
|-------------------------------------|
|                                     |
|                                     |
|-----------------0-------------0-----|
|-1---------------1-------------1-----|
|-0---------------0-------------0-----|
|-2--------2-------------2------------|
|-3--------3-------------3------------|
|-------------------------------------|
|                                     |
|                                     |
|-0-----------------------------------|
|-1---------------1-------------1-----|
|-0---------------0-------------0-----|
|-2----------------------2------------|
|-3--------3-------------3------------|
|-------------------------------------|





Introlude
(Guitar 1 Acous.)
|----------|--------|----------|------|
|----------|--------|----------|------|
|----------|--------|----------|------|
|-0--------|--------|-0--------|------|
|-0--------|--------|-0--------|------|
|-0--------|--------|-0--------|------|
|
|
(Guitar 2 Acous.)
|-------------------------------------|
|-------------------------------------|
|-7-----7----7----7----7----7----7----|
|-X-----X----X----X----X----X----X----|
|-5-----5----5----5----5----5----5----|
|-0-----0----0----0----0----0---------|
|                                     |
|                                     |
|-------------------------------------|
|-------------------------------------|
|-----7----7----7----7------7----7----|
|-----X----X----X----X------X----X----|
|-----5----5----5----5------5----5----|
|-0---7----7----7----6------6----6----|
|                                     |
|                                     |
|-------------------------------------|
|-------------------------------------|
|-7-----7----7----7----7----7----7----|
|-X-----X----X----X----X----X----X----|
|-5-----5----5----5----5----5----5----|
|-0-----0----0----0----0----0---------|
|                                     |
|                                     |
|-------------------------------------|
|-------------------------------------|
|-----7----7----7----7------7---------|
|-----X----X----X----X------X----0----|
|-----5----5----5----5------5----0----|
|-0---7----7----7----6------6---------|





(Guitar 1 Acous.)
|------------------|------------------|
|------------------|------------------|
|------------------|------------------|
|-0----------------|------------------|
|-0----------------|------------------|
|-0----------------|------------------|
|
|
(Guitar 2 Acous.)
|-------------------------------------|
|-------------------------------------|
|-7----7----7----7----7----7----7---7-|
|-X----X----X----X----X----X----X---X-|
|-5----5----5----5----5----5----5---5-|
|-0----0----0----0----0----0----0---0-|
|                                     |
|                                     |
|-------------------------------------|
|-------------------------------------|
|-7----7----7----7-----7--------7---7-|
|-X----X----X----X-----X--------X---X-|
|-5----5----5----5-----5--------5---5-|
|-0----7----7----7-----6--------6---6-|





Chorus
(Guitar 1 Acous.)
|----0----|-------0-|----0----|-0----0-|
|---------|-10------|---------|--------|
|------10-|----10---|------10-|---10---|
|-12------|---------|-12------|--------|
|---------|---------|---------|--------|
|---------|---------|---------|--------|
|
|
(Guitar 2 Acous.)
|---0---0-|-----0---0-|-----0---0-|-----0---0-|
|---6-6---|---6---6---|---6---6---|---6---6---|
|---7-----|---7---7---|---7---7---|---7---7---|
|---------|-----------|-----------|-----------|
|---------|-----------|-----------|-----------|
|-8-------|-7---------|-0---------|-3---------|

Chorus Cont.
(Guitar 1 Acous.)
|----0----|-------0-|----0----|-10----0-|
|---------|-10------|---------|---------|
|------10-|----10---|------10-|----10---|
|-12------|---------|-11------|---------|
|---------|---------|---------|---------|
|---------|---------|---------|---------|
|
|
(Guitar 2 Acous.)
|-----0---0-|-----0---0-|-----0---0-|-----0---0-|
|---6---6---|---6---6---|---6---6---|---6---6---|
|---7---7---|---7---7---|---7---7---|---7---7---|
|-----------|-----------|-----------|-----------|
|-----------|-----------|-----------|-----------|
|-8---------|-7---------|-0---------|-3---------|





Introlude 2
(Guitar 1 Acous.)
|---------|-------|---------|------|
|---------|-------|---------|------|
|---------|-------|---------|------|
|-12------|-------|---------|------|
|---------|-------|---------|------|
|---------|-------|---------|------|
|
|
(Guitar 2 Acous.)
|-------------------0-------------0---|
|-----------6--------------6----------|
|-----------7--------------7----------|
|-------------------------------------|
|-------------------------------------|
|-0-----------------------------------|
|                                     |
|                                     |
|-0-----------------------------------|
|-6-----------------------------------|
|-7------------9------------10--------|
|--------------X------------X---------|
|--------------7------------8---------|
|-------------------------------------|
|                                     |
|                                     |
|-------------------------------------|
|-3---------3------3------3-----------|
|-3---------3------3------3-----------|
|-3---------3------3------3-----------|
|-1---------1------1------1------0----|
|-------------------------------------|
|                                     |
|                                     |
|-------------------------------------|
|-1---------1------1------1------1----|
|-0---------0------0------0------0----|
|-2---------2------2------2------2----|
|-3---------3------3------3------3----|
|-------------------------------------|





(Guitar 2 Acous.)
|-------------------------------------|
|-1---------1------1------1------1----|
|-0---------0------0------0------0----|
|-2---------2------2------2------2----|
|-3---------3------3------3------3----|
|-------------------------------------|
|                                     |
|                                     |
|-------------------------------------|
|--------3-------3-------3------------|
|--------3-------3-------3------------|
|--------3-------3-------3------------|
|--------1-------1-------1------------|
|-------------------------------------|
|                                     |
|                                     |
|-1---------1------1------1-----------|
|-3---------3------3------3-----------|
|-2---------2------2------2------0----|
|-0---------0------0------0------0----|
|-0---------0------0------0------0----|
|-0---------0------0------0-----------|





(Guitar 2 Acous.)
|-------------------------------------|
|-------------------------------------|
|-------------------------------------|
|-5--------5------5------5------0-----|
|-5--------5------5------5------0-----|
|-5--------5------5-------------------|
|                                     |
|                                     |
|-------------------------------------|
|-------------------------------------|
|-7--------6---------7---------7------|
|-X--------X---------X---------X------|
|-5--------4---------5---------5------|
|-0-----------------------------------|
|                                     |
|                                     |
|-------------------------------------|
|-------------------------------------|
|-7------------6------------7---------|
|-X------------X------------X---------|
|-5------------4------------5---------|
|-0-----------------------------------|
|                                     |
|                                     |
|-------------------------------------|
|-6------6-----6-----6-----6----------|
|-7------7-----7-----7-----7----------|
|-7------7-----------7----------------|
|-5------5-----------5----------------|
|-------------------------------------|
|                                     |
|                                     |
|-------------------------------------|
|-3---------3------3------3------3----|
|-3---------3------3------3------3----|
|-3---------3------3------3------3----|
|-1---------1------1------1------1----|
|-------------------------------------|





(Guitar 2 Acous.)
|-------------------------------------|
|-------------------------------------|
|-8\7--------5--------7---------------|
|-X----------X--------X---------------|
|-6\5--------3--------5---------------|
|-0----------0--------0--------0------|
|                                     |
|                                     |
|-------------------------------------|
|-------------------------------------|
|-8\7--------5 / 9--------7-----------|
|-X----------X---X--------X-----------|
|-6\5--------3 / 7--------5-----------|
|-0----------0---0--------------------|
|                                     |
|                                     |
|-------------------------------------|
|-6-------6------6------6------6------|
|-7-------7------7------7------7------|
|-7-------7------7------7------7------|
|-0-------0------0------0------0------|
|-------------------------------------|
|                                     |
|                                     |
|------------------------------0------|
|-6-------6------6------6-------------|
|-7-------7------7------7-------------|
|-0-------0------0------0-------------|
|-X-------X------X------X-------------|
|-8-------8------8------8-------------|





            
            
Suggest correction
Creating personal tab
Creating personal tab
You can edit any tab online and save it as your Personal.

You can edit, replace or remove any tab part or add personal notes – all changes will be seen only by you.

Personal tabs can be accessed anytime from any device, even offline.
Learn more »
comments
print report bad tab
2 comments total.
+1 reply
swe_fender 87 Aug 15, 2008 07:56 AM

Finally a correct tab for this song!! If you look at a clip named James & Paul writing Vermilion Pt2, you can see them play this way. Nice!

0 reply
Chaz-6(sic)6 172 Nov 06, 2009 09:53 AM

Yup, This Tab Is Really Good.
5 Stars.

guest
You may want to rate the tab now too:
select rating
Wanna post a correction for this tab? Suggest correction