Oops, an error
Loading. Please wait.

Vermilion tab

version 1
version 1
36,156 views 48 this week
4 commentsread comments
1 2 3 4 5
x 14
add to favorites
×
Save as Personal and add changes to this tab that will be seen only by you. Learn more ›
×
You can save this tab as Personal to edit and correct it or add notes. All changes will be seen only by you. Learn more »
launch autoscroll
font size
0
reset
how to read this tab
guitar tuner
backing track
0:00
0:00
edit
Autoscroll
slow
fast
+/-
esc
set tempo
stop
Author
B,F#,B,E,G#,C#
                                      Some delay or something
C# |------------------15------14---------------------|
G# |-----12----14------------------------------------|
E  |-------------------------------------------------|(intro)
B  |-------------------------------------------------| 
F# |-------------------------------------------------|
B  |-------------------------------------------------|

C# |-------------------------------------------------|
G# |-------------------------------------------------|
E  |-------------------------------------------------| (verse/intro)
B  |-2-x--2-x--3-x--3--------------------------------|
F# |-0-x--3-x--5-x--2--------------------------------|
B  |-------------------------------------------------|

                 Or try this other verse

C# |-------------------------------------------------|
G# |-------------------------------------------------| ( alternate )
E  |--------x-7-x-6----------------------------------| (verse/into )
B  |--4-x-6-x-5-x-4----------------------------------|
F# |--2-x-4------------------------------------------|
B  |-------------------------------------------------|


(mick or jim is playing this after the end of the verse)
C# |-------------------------------------------------|
G# |-------------------------------------------------|
E  |-------------------------------------------------|
B  |-------------------------------------------------|
F# |-----5/8-8-8\3-3-3-3-3---------------------------|
B  |-------------------------------------------------|


C# |-------------------------------------------------|
G# |-------------------------------------------------|
E  |-------------------------------------------------|
B  |--------3-3----5-5—7-7---------------------------|
F# |---5-5-------------------------------------------|
B  |-------------------------------------------------|

            |--------------P.M---------------------|
C# |-------------------------------------------------|
G# |-------------------------------------------------|
E  |-------------------------------------------------| (when he says OH')
B  |--10-----0-0-0-0--1-1-1--0-0-0--6-6-6--5-5-5-5---|    (pre-chorus1)
F# |--10-----0-0-0-0--1-1-1--0-0-0--6-6-6--5-5-5-5---|
B  |--10-----0-0-0-0—-1-1-1--0-0-0--6-6-6--5-5-5-5---|

             P.M            P.M         P.M  
C# |-------------------------------------------------|
G# |-------------------------------------------------|
E  |-------------------------------------------------|
B  |--13p12---------13p12-0-0-0-0-4p3-0-0-0-0-8p7----|(hard to say what caught my attention)
F# |--13p12-0-0-0-0-13p12-0-0-0-0-4p3-0-0-0-0-8p7----|      (pre-chorus2)
B  |--13p12-0-0-0-0-13p12-0-0-0-0-4p3-0-0-0-0-8p7----|


C# |----------------------------------|
G# |----------------------------------|
E  |----------------------------------|  (chorus)
B  |--8-------7------0----------------|
F# |--8-------7------0----------------|
B  |--8-------7------0----------------|

         (played behind chorus)
C# |---------------------------------------|
G# |---------------------------------------|
E  |--14--12--7------14--12--7--10---------|
B  |---------------------------------------|
F# |--12--10--5------12--10--5--8----------|
B  |---------------------------------------|
               
C# |-------------------------------------------------|
G# |-------------------------------------------------|
E  |-------------------------------------------------|
B  |--13p12---------13p12-0-0-0-0--------------------|(hard to say what caught my attention)
F# |--13p12-0-0-0-0-13p12-0-0-0-0--------------------|      (interlude)
B  |--13p12-0-0-0-0-13p12-0-0-0-0--------------------|

  (the outro part when he's saying she isn't real)
C# |---------------------------------------|
G# |---------------------------------------|
E  |---------------------------------------|
B  |--0----8---7---5-----------------------|
F# |--0----8---7---5-----------------------|
B  |--0----8---7---5-----------------------|

             (played behind the outro)
C# |---------------------------------------------|
G# |---------------------------------------------|
E  |--14--15--14--12----14--15--14--12--10-------|
B  |---------------------------------------------|
F# |--12--13--12--10----12--13--12--10--8--------|
B  |---------------------------------------------|


Intro
Verse x8
Pre-chorus1 x4
Verse x4
Pre-chorus1 x4
Pre-chorus2 x4
Chorus x4
Interlude x like 20 times (solo in background and I don't know it)
Interlude x 8
Chorus x 8
Outro x like 4 or 6 I'm not sure

Find out the strummings on your own
I know it sucks but I tried my best and stuff



************************************

| x  Dead note
| /  Slide up
| \  Slide down
| p  Pull-off

************************************

            
            
Suggest correction
Creating personal tab
Creating personal tab
You can edit any tab online and save it as your Personal.

You can edit, replace or remove any tab part or add personal notes – all changes will be seen only by you.

Personal tabs can be accessed anytime from any device, even offline.
Learn more »
comments
print report bad tab
4 comments total. Showing first comments.
0 reply
hohnor_321 10 Jun 02, 2004 08:00 PM

the intro isn't really right.
-------------------------------------------------------------
-------------------------------------------------------------
-2-2-2-4-4-4-10-10-10-9-9-9-9-9-9-5-5-5-5-5-5-5/7-7-7\4-4-4--
-2-2-2-4-4-4-10-10-10-9-9-9-9-9-9-5-5-5-5-5-5-5/7-7-7\4-4-4--
-0-0-0-2-2-2-8--8--8--7-7-7-7-7-7-3-3-3-3-3-3-3/5-5-5\2-2-2--
-------------------------------------------------------------


it was right mostly but you forgot some

0 reply
TheWrEcKeD 195 Jul 16, 2004 08:00 PM

u forgot the solo and the whole thing is a bit sloppy

0 reply
J_master26 110 Mar 18, 2005 07:00 PM

this song makes me mad cause i dont have a tuner

guest
You may want to rate the tab now too:
select rating
Wanna post a correction for this tab? Suggest correction