Oops, an error
Loading. Please wait.

Vermillion Part 1 Tab

version 1
version 1

Whole song

Interactive

25,380 views 9 this week
4 commentsread comments
1 2 3 4 5
worth learning
x 5
add to favorites
launch autoscroll
font size
0
reset
how to read this tab
guitar tuner
Tab Pro tools
  • play this tab
  • loop segment
  • change instrument
  • show fretboard
  • metronome
×
Best way to learn
"Vermillion Part 1"
Autoscroll
slow
fast
+/-
esc
set tempo
stop
Contributor
Ok i no this tab isnt 100% right, but when  play it, it sounds pretty much right, and 
cool, feel free to comment on how good/bad it is.
Hope u enjoy =)
Standard tuning
Heavy distortion


Intro x3
|----------------------------------------|
|----------------------------------------|
|----------------------------------------|
|----------999-888--333----7777-3333333--|
|--666-888-777-666--111----5555-1111111--|
|--444-666-------------------------------|

On the 4th time the end part changes
|------------------------------------------|
|------------------------------------------|
|------------------------------------------|
|----------999-888--333----77-99-1111111111| 11's not 1's
|--666-888-777-666--111----55-77-9-9-9-9-9-|
|--444-666---------------------------------|

Verse x2
Palm mute
|--xxxxxxxxxxxxxxxxxxxx------------------|
|--xxxxxxxxxxxxxxxxxxxx------------------|
|--xxxxxxxxxxxxxxxxxxxx------------------|
|--xxxxxxxxxxxxxxxxxxxx--7777-3333333----|
|--xxxxxxxxxxxxxxxxxxxx--5555-1111111----| 1's not 11's
|--xxxxxxxxxxxxxxxxxxxx------------------|

3rd time round..
|----------------------------------------|
|----------------------------------------|
|----------------------------------------|
|----------999-888--333----7777-3333333--|
|--666-888-777-666--111----5555-1111111--| 1's not 11's
|--444-666-------------------------------|

4th time the end part changes
|------------------------------------------|
|------------------------------------------|
|------------------------------------------|
|----------999-888--333----77-99-1111111111| 11's not 1's
|--666-888-777-666--111----55-77-9-9-9-9-9-|
|--444-666---------------------------------|

Sorry guys, not too sure about the first part of the pre-chorus where hes singing 
shes the only 1 who makes me sad" but heres the bit just after it
Pre-chorus x4
|----------------------------------------|
|----------------------------------------|
|----------------------------------------|
|----------------------------------------|
|-0---3---0---5---4----------------------|
|-0---1---0---3---2----------------------|

2nd verse (same as 1st)
Verse x2
Palm mute
|--xxxxxxxxxxxxxxxxxxxx------------------|
|--xxxxxxxxxxxxxxxxxxxx------------------|
|--xxxxxxxxxxxxxxxxxxxx------------------|
|--xxxxxxxxxxxxxxxxxxxx--7777-3333333----|
|--xxxxxxxxxxxxxxxxxxxx--5555-1111111----| 1's not 11's
|--xxxxxxxxxxxxxxxxxxxx------------------|

3rd time round..
|----------------------------------------|
|----------------------------------------|
|----------------------------------------|
|----------999-888--333----7777-3333333--|
|--666-888-777-666--111----5555-1111111--| 1's not 11's
|--444-666-------------------------------|

4th time the end part changes
|------------------------------------------|
|------------------------------------------|
|------------------------------------------|
|----------999-888--333----77-99-1111111111| 11's not 1's
|--666-888-777-666--111----55-77-9-9-9-9-9-|
|--444-666---------------------------------|

Pre-chorus (again) x4
|----------------------------------------|
|----------------------------------------|
|----------------------------------------|
|----------------------------------------|
|-0---3---0---5---4----------------------|
|-0---1---0---3---2----------------------|

Then the part where Corey is singing "hard to say what, caught my attention.."
x4
|----------------------------------------|
|----------------------------------------|
|----------------------------------------|
|-34444-34444-57777-46666----------------|
|-12222-12222-35555-24444----------------|
|----------------------------------------|

Chorus x2 Tremelo pick this, or you will get nowhere lol
|------------------------------------------------------|
|-------------------------------------------------| 11-|s no 1's
|----111111-121212-999-1111-777-111111-999-111111------|(Not exact times picked,
|-999--------------------------------------------------| you will just have to
|------------------------------------------------------| figure that out yourself
|------------------------------------------------------| but dont worry its easy)

Not sure about the solo =(
Then after the solo you go back to
x4
|----------------------------------------|
|----------------------------------------|
|----------------------------------------|
|-34444-34444-57777-46666----------------|
|-12222-12222-35555-24444----------------|
|----------------------------------------|

Last chorus x8 tremelo pick again
|------------------------------------------------------|
|-------------------------------------------------| 11-|s no 1's
|----111111-121212-999-1111-777-111111-999-111111------|(Not exact times picked,
|-999--------------------------------------------------| you will just have to
|------------------------------------------------------| figure that out yourself
|------------------------------------------------------|

Outro x2 - You can either do the same os th chorus, or as i like to do, i just pick each 
once, cause i think it makes the ending sound better...but thats just me!
|----------------------------------------|
|----------------------------------------|
|--11-12-9-11-7-11-9-11------------------|
|-9--------------------------------------|
|----------------------------------------|
|----------------------------------------|
comments
print report bad tab
4 comments total. Showing first comments.
0 reply
childofkorn wrote on September 1 2008, 03:28 am

At first I wanted to give it 1 Star (Very Bad) but it is the wrong tuning absolutely wrong chords, notes and everything. I can't even give it a note because its just useless. Sorry

+2 reply
GMCampey wrote on October 30 2008, 11:14 am

This is nothing like correct. There is absolutely no way that this is in standard tuning...

+1 reply
xwillasx wrote on December 6 2008, 09:05 am

/fail

I want to post or [tab]
guest
You may want to rate the tab now too:
select rating
Please do not post tabs as comments. Select "correction" instead!