Oops, an error
Loading. Please wait.

Vermillion Part 2 Tab

version 1
version 1

Whole song

Interactive

125,438 views 27 this week
20 commentsread comments
1 2 3 4 5
x 16
add to favorites
launch autoscroll
font size
0
reset
how to read this tab
guitar tuner
Autoscroll
slow
fast
+/-
esc
set tempo
stop
Slipknot
Vermilion part 2
Volume 3 : (The Subliminal Verses)
 
~ - Hold note
() - Palm mute

This tab only has Mick's parts but if you play it i still sounds like it

Intro / Verse - x6

C#|-----------------------|---------------------------------------|
G#|--0—2------------------|---------------------------------------|
E |-----------------------|--7--------------(7)-(7)---------(7)---|
B |---------5--4--4-5-4---|--7---------------7---6----------(6)---|
F#|--2~~~~~~~~~~~~~~~~----|--5~~-(5)-(5)-(5)-5---4---4---4---4----|
B |-----------------------|--0~~-(0)-(0)-(0)-0--(0)-(0)-(0)-(0)---|

Chorus

C#|--3---|--3-----3|---6---|--------------------|
G#|--4---|--4-----4|---4---|--------------------|
E |--5---|5-5-5-6-6|---5---|--7~~~~~~--7~~~~~~--|
B |--5---|3-5-5-6-6|---5---|--7~~~~~~--7~~~~~~--|
F#|--3---|3-3-3-3-3|---3---|--5~~~~~~--5~~~~~~--|
B |------|---------|-------|--0~~~~~~--0~~~~~~--|
         {---X3----}

Interlude 

C#|-----5-----------5---6--5-----5-----------5---|
G#|--3-----3--6--3------------3-----3--6--3------|
E |----------------------------------------------|
B |----------------------------------------------|
F#|----------------------------------------------|
B |----------------------------------------------|

C#|--1-(1)(1)(1)(1)(1)------|
G#|--3-(3)-3-(3)(3)(3)--5-6-|
E |--2-(2)(2)(2)(2)(2)------|
B |--0-(0)(0)(0)(0)(0)--2-3-|
F#|---------------------2-3-|
B |---------------------2-3-|

C#|--1-(1)(1)(1)(1)--0-(0)(0)(0)(0)--|
G#|--3-(3)(3)(3)(3)--1-(1)(1)(1)(1)--|
E |--3-(3)(3)(3)(3)--0-(0)(0)(0)(0)--|
B |--3-(3)(3)(3)(3)--2-(2)(2)(2)(2)--|
F#|--1-(1)(1)(1)(1)--3-(3)(3)(3)(3)--|
B |----------------------------------|

C#|---------------------|
G#|--5-5-5-5-5----------|
E |------------7-6-(6)--|
B |--2-2-2-2-2-0-4-(4)--|
F#|--2-2-2-2-2-0-4-(4)--|
B |--2-2-2-2-2-0--------|


C#|------------------------|
G#|------------------------|
E |--7-7-7-7-7--9-9-9-9-9--|
B |--0-0-0-0-0--7-7-7-7-7--|
F#|--0-0-0-0-0--7-7-7-7-7--|
B |--0-0-0-0-0--7-7-7-7-7--|


C#|--1-(1)(1)(1)(1)(1)--0-(0)(0)(0)(0)(0)--|
G#|--3-(3)(3)(3)(3)(3)--2-(2)(2)(2)(2)(2)--|
E |--2-(2)(2)(2)(2)(2)--2-(2)(2)(2)(2)(2)--|
B |--0-(0)(0)(0)(0)(0)--2-(2)(2)(2)(2)(2)--|
F#|---------------------0-(0)(0)(0)(0)(0)--|
B |----------------------------------------|

C#|--1-(1)(1)(1)(1)(1)--0-(0)(0)(0)(0)(0)--|
G#|--3-(3)(3)(3)(3)(3)--2-(2)(2)(2)(2)(2)--|
E |--3-(3)(3)(3)(3)(3)--2-(2)(2)(2)(2)(2)--|
B |--3-(3)(3)(3)(3)(3)--2-(2)(2)(2)(2)(2)--|
F#|--1-(1)(1)(1)(1)(1)--0-(0)(0)(0)(0)(0)--|
B |----------------------------------------|

C#|--1-(1)(1)(1)(1)(1)--0-(0)(0)(0)(0)(0)--|
G#|--3-(3)(3)(3)(3)(3)--2-(2)(2)(2)(2)(2)--|
E |--2-(2)(2)(2)(2)(2)--2-(2)(2)(2)(2)(2)--|
B |--0-(0)(0)(0)(0)(0)--2-(2)(2)(2)(2)(2)--|
F#|---------------------0-(0)(0)(0)(0)(0)--|
B |----------------------------------------|

C#|--1-(1)(1)(1)(1)(1)--0-(0)(0)(0)(0)(0)--|
G#|--3-(3)(3)(3)(3)(3)--2-(2)(2)(2)(2)(2)--|
E |--3-(3)(3)(3)(3)(3)--2-(2)(2)(2)(2)(2)--|
B |--3-(3)(3)(3)(3)(3)--2-(2)(2)(2)(2)(2)--|
F#|--1-(1)(1)(1)(1)(1)--0-(0)(0)(0)(0)(0)--|
B |----------------------------------------|

C#|-----5--6--5-----5---6--5-----5--6--5-----5--|
G#|--3-----------3------------3-----------3-----|
E |---------------------------------------------|
B |---------------------------------------------|
F#|---------------------------------------------|
B |---------------------------------------------|

Verse riff- x6

C#|-----------------------|---------------------------------------
G#|--0—2------------------|---------------------------------------
E |-----------------------|--7--------------(7)-(7)---------(7)---
B |---------5--4--4-5-4---|--7---------------7---6----------(6)---
F#|--2~~~~~~~~~~~~~~~~----|--5~~-(5)-(5)-(5)-5---4---4---4---4----
B |-----------------------|--0~~-(0)-(0)-(0)-0--(0)-(0)-(0)-(0)---

Outro 

C#|----------15--14~~~~~~--|
G#|--12--14----------------|
E |------------------------|
B |------------------------|
F#|------------------------|
B |------------------------|

The strumming is easy to figure out, just listen to the song a few times.
Suggest correction
comments
print report bad tab
20 comments total. Showing first comments.
+1 reply
captainxkitty 21 Nov 27, 2005 09:21 AM

great tab. however, I've been looking for the chords to this song. if anyone can find them or write out the names of the chords for me, that would be great. e-mail me @:captainxkitty@hotmail.com

0 reply
FooFighter68 30 Apr 01, 2006 07:48 PM

i dont find thia as acurate ad the other one, srry, my oppinion

0 reply
Tatersalad927 10 Sep 10, 2006 03:21 PM

missing pieces, and it doesn't sound right.

guest
Wanna post a correction for this tab? Suggest correction