Oops, an error
Loading. Please wait.

Vermillion Part 2 Tab

version 2
version 2

Whole song

Interactive

247,413 views 354 this week
14 commentsread comments
1 2 3 4 5
excellent!
x 44
add to favorites
launch autoscroll
font size
0
reset
how to read this tab
guitar tuner
Autoscroll
slow
fast
+/-
esc
set tempo
stop
Help us to improve Ultimate-Guitar.com Take our survey!
×
Author
Difficulty
Tuning
wtflolbbq 788
intermediate
B F# B E G# C#
                           Slipknot - Vermillion Pt 2

Tabbed by: wtflolbbq

Tuning:Drop B (NOT Db)

I tried to match up Guitar One and Guitar Two as close as possible but some measures
are misaligned. Look for the letters above the measures rather than the dashes inbetween
the numbers


  [Intro\Verse] (x6)

    Q.       Q.       Q.      Q.        H          W              W
C#|---------------------------------------------------------------------------------|
G#|---------------------------------------------------------------------------------|
E |-4--------6----------------------------------------------------------------------|
b |-------------------5-------p4-------(4)------------------------------------------|
F#|---------------------------------------------------------------------------------|
B |------------------------------------------------0-------------(0)----------------|
  |
  | E  E  E  E  E  E  E  E  E  E  E  E  E  E  E  E Q  E E E E E E E E E E E E E E E
C#|---------------------------------------------------------------------------------|
G#|---------------------------------------------------------------------------------|
E |------------------------------------------------7--7-7-7-7-7-7-7-7(7)7-7-7-7-7---|
b |-12-12-12-12-12-12-12-12-12-12-12-12-12-12-12-0-x--x-x-x-x-x-x-x-x---x-x-x-x-x-0-|
F#|-9--9--9--9--9--9--10-10-10-9--9--9--9--10-9--0-5--5-5-5-5-5-5-5-5\4-4-4-4-4-4-0-|
B |-9--9--9--11-11-11-9--9--9--9--9--9--9--9--9----0--0-0-0-0-0-0-0-0(0)0-0-0-0-0-0-|


  [Interlude] (x1)

    H.      H.
C#|------------------------------------------|
G#|-1------(1)-------------------------------|
E |-0------(0)-------------------------------|
b |-2------(2)-------------------------------|
F#|-3------(3)-------------------------------|
B |------------------------------------------|
  |
  | Q. Q  E Q  E E E E Q  E E E E Q  E E E E
C#|------------------------------------------|
G#|-1--1--1-1--1-1-1-1-1--1-1-1-1-1--1-1-1-1-|
E |-0--0--0-0--0-0-0-0-0--0-0-0-0-0--0-0-0-0-|
b |-2--2--2-2--2-2-2-2-2--2-2-2-2-2--2-2-2-2-|
F#|-3--3--3-3--3-3-3-3-3--3-3-3-3-3--3-3-3-3-|
B |------------------------------------------|

    W              W              W              W
C#|-------------------------------------------------------------|
G#|-------------------------------------------------------------|
E |-------------------------------------------------------------|
b |-0-------------(0)-------------0-------------(0)-------------|
F#|-0-------------(0)-------------0-------------(0)-------------|
B |-0-------------(0)-------------0-------------(0)-------------|
  |
  | Q  E E E E E E E E E E Q E E  Q  E E E E E E E E E E Q  E E
C#|-------------------------------------------------------------|
G#|-------------------------------------------------------------|
E |-7--7-7-7-7-7-7-7-7-7-7-7--7-7-7--7-7-7-7-7-7-7-7-7-7-7--7---|
b |-x--x-x-x-x-x-x-x-x-x-x-x--x-x-x--x-x-x-x-x-x-x-x-x-x-x--x-0-|
F#|-5--5-5-5-5-5-5-5-5-5-5-5--5-5-5--5-5-5-5-5-5-5-5-5-5-5--5-0-|
B |-0--0-0-0-0-0-0-0-7-7-7-6--6-6-0--0-0-0-0-0-0-0-7-7-7-6--6---|


  [Verse] (x4)

    Q.       Q.       Q.      Q.        H          W                W
C#|---------------------------------------------------------------------------------|
G#|---------------------------------------------------------------------------------|
E |-4--------6----------------------------------------------------------------------|
b |-------------------5-------p4-------(4)------------------------------------------|
F#|---------------------------------------------------------------------------------|
B |------------------------------------------------0---------------(0)--------------|
  |
  | E  E  E  E  E  E  E  E  E  E  E  E  E  E  E  E Q  E E E E E E E E E E E E E E E
C#|---------------------------------------------------------------------------------|
G#|---------------------------------------------------------------------------------|
E |------------------------------------------------7--7-7-7-7-7-7-7-7(7)7-7-7-7-7---|
b |-12-12-12-12-12-12-12-12-12-12-12-12-12-12-12-0-x--x-x-x-x-x-x-x-x---x-x-x-x-x-0-|
F#|-9--9--9--9--9--9--10-10-10-9--9--9--9--10-9--0-5--5-5-5-5-5-5-5-5\4-4-4-4-4-4-0-|
B |-9--9--9--11-11-11-9--9--9--9--9--9--9--9--9----0--0-0-0-0-0-0-0-0(0)0-0-0-0-0-0-|


  [Interlude] (x1)

    H.     H.
C#|------------------------------------------|
G#|-1-----(1)--------------------------------|
E |-0-----(0)--------------------------------|
b |-2-----(2)--------------------------------|
F#|-3-----(3)--------------------------------|
B |------------------------------------------|
  |
  | Q. Q  E Q  E E E E Q  E E E E Q  E E E E
C#|------------------------------------------|
G#|-1--1--1-1--1-1-1-1-1--1-1-1-1-1--1-1-1-1-|
E |-0--0--0-0--0-0-0-0-0--0-0-0-0-0--0-0-0-0-|
b |-2--2--2-2--2-2-2-2-2--2-2-2-2-2--2-2-2-2-|
F#|-3--3--3-3--3-3-3-3-3--3-3-3-3-3--3-3-3-3-|
B |------------------------------------------|

    W              W              W              W
C#|-------------------------------------------------------------|
G#|-------------------------------------------------------------|
E |-------------------------------------------------------------|
b |-0-------------(0)-------------0-------------(0)-------------|
F#|-0-------------(0)-------------0-------------(0)-------------|
B |-0-------------(0)-------------0-------------(0)-------------|
  |
  | Q  E E E E E E E E E E Q  E E Q  E E E E E E E E E E Q  E E
C#|-------------------------------------------------------------|
G#|-------------------------------------------------------------|
E |-7--7-7-7-7-7-7-7-7-7-7-7--7-7-7--7-7-7-7-7-7-7-7-7-7-7--7-7-|
b |-x--x-x-x-x-x-x-x-x-x-x-x--x-x-x--x-x-x-x-x-x-x-x-x-x-x--x-x-|
F#|-5--5-5-5-5-5-5-5-5-5-5-5--5-5-5--5-5-5-5-5-5-5-5-5-5-5--5-5-|
B |-0--0-0-0-0-0-0-0-7-7-7-6--6-6-0--0-0-0-0-0-0-0-7-7-7-6--6-6-|


  [Chorus] (x1)

    Q  Q  Q  Q  Q  Q  Q  Q  Q  Q  Q  Q
C#|----0-----------0-----0-----0-----0----------|
G#|----------10-------------10------------------|
E |-------10----10----------------10------------|
b |-12----------------12------------------------|
F#|---------------------------------------------|
B |---------------------------------------------|
  | Q  E E E E Q  E E E E Q  E E E E Q  E E E E
C#|------0---0------0---0------0---0------0---0-|
G#|----6---6------6---6------6---6------6---6---|
E |----7---7------7---7------7---7------7---7---|
b |---------------------------------------------|
F#|---------------------------------------------|
B |-8----------7----------0----------3----------|

    Q  Q  Q  Q  Q  Q  Q  Q  Q  Q  Q  Q
C#|----0-----------0-----0-----------0----------|
G#|----------10-------11-------10---------------|
E |-------10----10----------10----10------------|
b |-12------------------------------------------|
F#|---------------------------------------------|
B |---------------------------------------------|
  | Q  E E E E Q  E E E E Q  E E E E Q  E E E E
C#|------0---0------0---0------0---0------0---0-|
G#|----6---6------6---6------6---6------6---6---|
E |----7---7------7---7------7---7------7---7---|
b |---------------------------------------------|
F#|---------------------------------------------|
B |-8----------7----------0----------3----------|

    Q  Q  Q  Q  Q  Q  Q  Q  Q  Q  Q  Q
C#|----0-----------0-----0-----0-----0----------|
G#|----------10-------------10------------------|
E |-------10----10----------------10------------|
b |-12----------------12------------------------|
F#|---------------------------------------------|
B |---------------------------------------------|
  | Q  E E E E Q  E E E E Q  E E E E Q  E E E E
C#|------0---0------0---0------0---0------0---0-|
G#|----6---6------6---6------6---6------6---6---|
E |----7---7------7---7------7---7------7---7---|
b |---------------------------------------------|
F#|---------------------------------------------|
B |-8----------7----------0----------3----------|

    Q  Q  Q  Q  Q  Q  Q
C#|----0-----------0--------------------------|
G#|----------10-------------------------------|
E |-------10----10----------------------------|
b |-12----------------12----------------------|
F#|-------------------------------------------|
B |-------------------------------------------|
  |
  | Q  E E E E Q  E E E E Q  E E E E Q  Q  Q
C#|------0---0------0---0------0---0-0--------|
G#|----6---6------6---6------6---6---6--------|
E |----7---7------7---7------7---7---7--9--10-|
b |-------------------------------------x--x--|
F#|-------------------------------------7--8--|
B |-8----------7----------0-------------------|


[Bridge] (x1) Guitar Two Only 

    Q  E E E E Q  E E E E Q  E E E E Q  Q  Q  Q  E E E
C#|-------------------------------------------1--1-1-1-|
G#|-3--3-3-3---1--1-1-1-1-1--1-1-1-1-3--3--3--3--3-3-3-|
E |-3--3-3-3---0--0-0-0-0-0--0-0-0-0-3--3--3--2--2-2-2-|
b |-3--3-3-3---2--2-2-2-2-2--2-2-2-2-3--3--3--0--0-0-0-|
F#|-1--1-1-1-0-3--3-3-3-3-3--3-3-3-3-1--1--1--0--0-0-0-|
B |-------------------------------------------0--0-0-0-|

      I catch in my throat...
    E Q  E E E Q  Q  E E Q  Q  Q  Q  E E E E Q  E E E E
C#|-----------------------------------------------------|
G#|-------------------------------6--6-6-6-6-3--3-3-3-3-|
E |-0----------7--6--7-7-7--6--6--7--7-7-7-7-3--3-3-3-3-|
b |-0-5--5-5-0-x--x--x-x-x--x--x--7--7---7---3--3-3-3-3-|
F#|-0-5--5-5-0-5--4--5-5-5--4--5--5--5---5---1--1-1-1-1-|
B |---5--5-5---0---------0------------------------------|


    E E Q  E E E E Q  E E Q  E E E E Q  E E E E
C#|-------------------------------------------0-----------------------|
G#|-----------------------6--6-6-6-6-6--6-6-6-------------------------|
E |-8\7-5--7-7-8\7-5-/9-7-7--7-7-7-7-7--7-7-7-------------------------|
b |-x---x--x-x-x-x-x--x-x-7--7-7-7-7-0--0-0-0-------------------------|
F#|-6\5-3--5-5-6\5-3-/7-5-0--0-0-0-0-x--x-x-x-------------------------|
B |-0(0)0--0-0-0(0)0-(0)0------------8--8-8-8-------------------------|


 [Chorus] (x1)

    Q  Q  Q  Q  Q  Q  Q  Q  Q  Q  Q  Q
C#|----0-----------0-----0-----0-----0----------|
G#|----------10-------------10------------------|
E |-------10----10----------------10------------|
b |-12----------------12------------------------|
F#|---------------------------------------------|
B |---------------------------------------------|
  | Q  E E E E Q  E E E E Q  E E E E Q  E E E E
C#|------0---0------0---0------0---0------0---0-|
G#|----6---6------6---6------6---6------6---6---|
E |----7---7------7---7------7---7------7---7---|
b |---------------------------------------------|
F#|---------------------------------------------|
B |-8----------7----------0----------3----------|

    Q  Q  Q  Q  Q  Q  Q  Q  Q  Q  Q  Q
C#|----0-----------0-----0-----------0----------|
G#|----------10-------11-------10---------------|
E |-------10----10----------10----10------------|
b |-12------------------------------------------|
F#|---------------------------------------------|
B |---------------------------------------------|
  | Q  E E E E Q  E E E E Q  E E E E Q  E E E E
C#|------0---0------0---0------0---0------0---0-|
G#|----6---6------6---6------6---6------6---6---|
E |----7---7------7---7------7---7------7---7---|
b |---------------------------------------------|
F#|---------------------------------------------|
B |-8----------7----------0----------3----------|

    Q  Q  Q  Q  Q  Q  Q  Q  Q  Q  Q  Q
C#|----0-----------0-----0-----0-----0----------|
G#|----------10-------------10------------------|
E |-------10----10----------------10------------|
b |-12----------------12------------------------|
F#|---------------------------------------------|
B |---------------------------------------------|
  | Q  E E E E Q  E E E E Q  E E E E Q  E E E E
C#|------0---0------0---0------0---0------0---0-|
G#|----6---6------6---6------6---6------6---6---|
E |----7---7------7---7------7---7------7---7---|
b |---------------------------------------------|
F#|---------------------------------------------|
B |-8----------7----------0----------3----------|

    Q  Q  Q  Q  Q  Q 
C#|----0-----------0------|
G#|----------10-----------|
E |-------10----10--------|
b |-12--------------------|
F#|-----------------------|
B |-----------------------|
  | Q  E E E E Q  E E E E 
C#|------0---0------0---0-|
G#|----6---6------6---6---|
E |----7---7------7---7---|
b |-----------------------|
F#|-----------------------|
B |-8----------7----------|


[Outro](6x)

    Q.       Q.       Q.      Q.        H          W              W
C#|---------------------------------------------------------------------------------|
G#|---------------------------------------------------------------------------------|
E |-4--------6----------------------------------------------------------------------|
b |-------------------5-------p4-------(4)------------------------------------------|
F#|---------------------------------------------------------------------------------|
B |------------------------------------------------0-------------(0)----------------|
  |
  | E  E  E  E  E  E  E  E  E  E  E  E  E  E  E  E Q  E E E E E E E E E E E E E E E
C#|---------------------------------------------------------------------------------|
G#|---------------------------------------------------------------------------------|
E |------------------------------------------------7--7-7-7-7-7-7-7-7(7)7-7-7-7-7---|
b |-12-12-12-12-12-12-12-12-12-12-12-12-12-12-12-0-x--x-x-x-x-x-x-x-x---x-x-x-x-x-0-|
F#|-9--9--9--9--9--9--10-10-10-9--9--9--9--10-9--0-5--5-5-5-5-5-5-5-5\4-4-4-4-4-4-0-|
B |-9--9--9--11-11-11-9--9--9--9--9--9--9--9--9----0--0-0-0-0-0-0-0-0(0)0-0-0-0-0-0-|


Piano part if you want it
     Q.   Q.   Q.    Q.     H
C#|------------3-----2-----(2)-----------------------------------------------|
G#|-------2------------------------------------------------------------------|
E |--4-----------------------------------------------------------------------|
b |--------------------------------------------------------------------------|
F#|--2-----------------------------------------------------------------------|
B |--------------------------------------------------------------------------|

*******************************************************
     ||KEY||
     _______
 W - whole note
 H - half note
 Q.- dotted quarter note
 Q - quarter note
 E - eighth note

| /  slide up
| \  slide down
| x  Mute note
*******************************************************
Suggest correction new What's this?
You can suggest a correction to this tab. Community and Mods will review your correction and vote to approve or reject it.
comments
print report bad tab
14 comments total. Showing first comments.
0 reply
Metalmaster876 121 wrote on December 15 2009, 05:48 pm

THE BEST TAB ON HERE!!! Holy shit dude, sounds EXACTLY like it! Thank you so much for the tab, i was giving up hope for ever finding an accurate one!

+1 reply
MR_KNOT 55 wrote on December 5 2010, 01:08 am

reading this tab makes me want to throw up. at parts its hard to decyfer guitar pt1 and 2 >:[

+1 reply
guitaradict4 13 wrote on January 8 2011, 03:57 pm

ITS PERFECT just agree with MR_KNOT is really hard to understand the tab :/

guest
You may want to rate the tab now too:
select rating
Please do not post tabs as comments. Select "correction" instead!