Oops, an error
Loading. Please wait.

Wait And Bleed Bass Tab

version 3
version 3
6,400 views 18 this week
1 commentread comment
1 2 3 4 5
accurate
x 6
add to favorites
launch autoscroll
font size
0
reset
guitar tuner
Tab Pro tools
  • play this tab
  • loop segment
  • change instrument
  • show fretboard
  • metronome
Autoscroll
slow
fast
+/-
esc
set tempo
stop
                            WAIT AND BLEED (Bassline)
                             As recorded by Slipknot
                           (From the 2000 Album IOWA)

Words and Music by Shawn M. Crahan, Paul Gray, Nathan Jordison, Corey Taylor
Arranged by Stephen Brown
Transcribed by Stephen Brown

Gtr I (B F# B E) - 'Untitled'

 Chorus
  Fast Rock Q=184
 4/4
  Gtr I
  Q.   E +E  E E E   +E  E E E +E  E E E   +Q.   E +E  Q  E
|------------------|---------------------|-------------------|
|------------------|---------------------|-------------------|
|------------------|---------------------|-------------------|
|-0----7-(7)-7-7S1-|-(1)-1-1S8-(8)-8-8-0-|-(0)---7-(7)-7S=1--|


  +E  Q  E +E  E E E   +Q.   E +E  Q  E   +E  E E E +E  E E E
|--------------------|------------------|---------------------|
|--------------------|------------------|---------------------|
|--------------------|------------------|---------------------|
|-(1)-1S=8-(8)-8-8-0-|-(0)---7-(7)-7S=1-|-(1)-1-1S8-(8)-8-8-0-|


  +E  E E E +E  Q  E   +E  E E E +E  E E E   Q  E E +E  E E E
|--------------------|---------------------|------------------|
|--------------------|---------------------|------------------|
|--------------------|---------------------|------0-(0)-0-----|
|-(0)-0-0-7-(7)-7S=1-|-(1)-1-1S8-(8)-8-8-8-|-0--0---------0-1-|


  +E  E E E +E  E E E   Q  E E +E  E E E   +E  E E E E E E E
|---------------------|------------------|-------------------|
|---------------------|------------------|-------------------|
|---------1-(1)-1-1-1-|----0-0-(0)-0-----|-------------------|
|-(1)-1-1-------------|-0------------0-1-|-(1)-1-1-1-1-1-1-1-|


  Q  E E +E  E E E   +E  E E E +E  E E E   Q  E E +E  E E E
|------------------|---------------------|------------------|
|------------------|---------------------|------------------|
|------0-(0)-0-----|---------1-(1)-1-1-1-|------0-(0)-0-----|
|-0--0---------0-1-|-(1)-1-1-------------|-0--0---------0-1-|


  +E  E E E E E S S E   S S E E S S E E Q
|---------------------|--------------------|
|---------------------|--------------------|
|-----1---1---1-1-1-1-|--------------------|
|-(1)---1---1---------|-0-0-0---0-0-0------|


  S S E E S S E E Q    S S E E S S E E Q
|--------------------|-------------------|
|--------------------|-------------------|
|--------------------|-------------------|
|-0-0-0---0-0-0------|-0-0-0---0-0-0-----|


                       Verse
  S S E E S S Q  Q      S S E E S S E  E  E  E   S S E E S S E  E  E  E
|--------------------||------------------------|-------------------------|
|--------------------||------------------------|-------------------------|
|--------------------||------------------------|-------------------------|
|-0-0-0---0-0-0--7\--||-0-0-0---0-0-0--1--4--1-|-0-0-0---0-0-0--1--4--1--|


    S S E E S S E  E  E  E    S S E E S S E  E  E  E   6x
||--------------------------|--------------------------||
||o-------------------------|-------------------------o||
||o-------------------------|-------------------------o||
||--0-0-0---0-0-0--1--4--1--|-0-0-0---0-0-0--1--4--1---||


                                                    Chorus
                                                  $
  S S E E S S E  E  E  E   S S E E S S E  E  E  E    Q    E  E  +E   E  E  E
|------------------------|------------------------||--------------------------|
|------------------------|------------------------||--------------------------|
|------------------------|------------------------||---------0--(0)--0--------|
|-0-0-0---0-0-0--1--4--1-|-0-0-0---0-0-0--1--4--1-||-0----0-------------0--1--|


  +E  E E E +E  E E E   Q  E E E E E E   +E  E E E E E E E
|---------------------|----------------|-------------------|
|---------------------|-0--0-0-0---0-1-|-(1)-0-------------|
|---------1-(1)-1-1-1-|----------3-----|-------4-3-2-1-0---|
|-(1)-1-1-------------|----------------|-----------------3-|


  Q  E E E E E E   +E  E E E +E  E E E   E E E E +E  E E E
|----------------|---------------------|-------------------|
|----------------|---------------------|-0-0-0-------------|
|------0-0-0-----|---------1-(1)-1-0-1-|-------0-(0)-0-----|
|-0--0-------0-1-|-(1)-1-1-------------|---------------0-1-|


               To Coda
  +E  E E E E E S S E   S S E E S S E  E  E  E   S S E E S S E  E  E  E
|---------------------|------------------------|--------------------------|
|---------------------|------------------------|--------------------------|
|-----1---1---1-1-1-1-|------------------------|--------------------------|
|-(1)---1---1---------|-0-0-0---0-0-0--1--4--1-|-0-0-0---0-0-0--1--4--1---|


                        Verse
              |--3--|
  S S E E S S Q  Q  Q    S S E E E E E E E   S S E E S S E  E  E  E
|---------------------||-------------------|------------------------|
|---------------------||-------------------|------------------------|
|---------------------||-------------------|------------------------|
|-0-0-0-1-0-0-1--4--1-||-0-0-0-1-1-0-1-4-1-|-0-0-0---0-0-0--1--4--1-|


                                             D.S. al Coda
    S S E E S S E  E  E  E   S S E E S S E  E  E  E   3x
||-------------------------|--------------------------||--|
||o------------------------|-------------------------o||--|
||o------------------------|-------------------------o||--|
||--0-0-0---0-0-0--1--4--1-|-0-0-0---0-0-0--1--4--1---||--|


  &
  Q  E E +E  E E E   +E  E E E +E  E E E   Q  E E +E  E E E
|------------------|---------------------|------------------|
|------------------|---------------------|------------------|
|------0-(0)-0-----|---------1-(1)-1-1-1-|------0-(0)-0-----|
|-0--0---------0-1-|-(1)-1-1-------------|-0--0---------0-1-|


  +E  E E E +E  E E E   Q  E E +E  E E E   +E  E E E +E  E E E
|---------------------|------------------|---------------------|
|---------------------|------------------|---------------------|
|---------1-(1)-1-1-1-|------0-(0)-0-----|---------1-(1)-1-1-1-|
|-(1)-1-1-------------|-0--0---------0-1-|-(1)-1-1-------------|


                                         Interlude
  Q  E E +E  E E E   +E  E E E E E E E    E E Q  H        W       W
|------------------|-------------------||-------------|-------|-----|
|------------------|-------------------||-------------|-------|-----|
|------0-(0)-0-----|-------------------||-------------|-------|-----|
|-0--0---------0-1-|-(1)-1-1-1-1-1-1-1-||-0-----------|-------|-----|


  S S S S S S S S S S E E S S   E E E E S S Q  S S   E E E E S S Q S S
|-----------------------------|--------------------|-------------------|
|-----------------------------|--------------------|-------------------|
|-----------------------------|---0----------------|---0---------------|
|-0-0-0-0-0-0-1-1-1-1-0-0-0-1-|-3---0-0-0-0-0--0-1-|-3---0-0-0-0-0-0-1-|


  E E E E S S Q  S S   E E E E S S Q  S S
|--------------------|--------------------|
|--------------------|--------------------|
|---0----------------|---0----------------|
|-3---0-0-0-0-0--0-1-|-3---0-0-0-0-0--0-1-|


   Bridge
    E E E E S S Q  S S   E E E E S S Q  S S   4x
||---------------------|----------------------||
||o--------------------|---------------------o||
||o---0----------------|---0-----------------o||
||--3---0-0-0-0-0--0-1-|-3---0-0-0-0-0--0-1---||


 Chorus
  E E E E E E E E   E E E E E E E E   E E E E E E E E   E E E E E E E E
|-----------------|-----------------|-----------------|-----------------|
|-----------------|-----------------|-----------------|-----------------|
|-----------------|-----------------|-----------------|-----------------|
|-0-0-0-7-7-7-7S1-|-1-1-1-1-1-1-1-1-|-0-0-0-7-7-7-7S1-|-1-1-1-1-1-1-1-1-|


    E E E E E E E E   E E E E E E E E   E E E E E E E E   E E E E E E E E   6x
||------------------|-----------------|-----------------|-------------------||
||o-----------------|-----------------|-----------------|------------------o||
||o-----------------|-----------------|-----------------|------------------o||
||--0-0-0-7-7-7-7S1-|-1-1-1-1-1-1-1-1-|-0-0-0-7-7-7-7S1-|-1-1-1-1-1-1-1-1---||


                                            Outro
  S S E E S S E E Q    S S E E S S E E Q     S S E E S S E  E  E  E
|--------------------|--------------------||------------------------|
|--------------------|--------------------||------------------------|
|--------------------|--------------------||------------------------|
|-0-0-0---0-0-0------|-0-0-0---0-0-0------||-0-0-0---0-0-0--1--4--1-|


    S S E E S S E  E  E  E    S S E E S S E  E  E  E   3x
||--------------------------|--------------------------||
||o-------------------------|-------------------------o||
||o-------------------------|-------------------------o||
||--0-0-0---0-0-0--1--4--1--|-0-0-0---0-0-0--1--4--1---||


  S S E Q  H
|---------------*|----|
|---------------*|----|
|---------------*|----|
|-0-0-0---------*|----|
comments
print report bad tab
1 comment total.
0 reply
Patdi wrote on March 2 2007, 08:57 pm

its from there selftitled album

I want to post or [tab]
guest
You may want to rate the tab now too:
select rating
Please do not post tabs as comments. Select "correction" instead!