Oops, an error
Loading. Please wait.

Wherein Lies Continue Tab

version 1
version 1

Whole song

Interactive

21,509 views 36 this week
13 commentsread comments
1 2 3 4 5
excellent!
x 14
add to favorites
launch autoscroll
font size
0
reset
how to read this tab
guitar tuner
Autoscroll
slow
fast
+/-
esc
set tempo
stop
Help us to improve Ultimate-Guitar.com Take our survey!
×
Contributor
thezohan 617
-------------------------------------------------------------------------------
                           Wherein Lies Continue - Slipknot
-------------------------------------------------------------------------------
Tabbed by:thezohan
Email:

Tuning:Drop A(A,E,A,D,F#,B)
Now, since no one was able to tab this out RIGHT I decided I would
SLOW DOWN the song and figure it out correctly. Enjoy!!! 

  Intro #1
B |-----------------------------------------------------------|
F#|-----------------------------------------------------------|
D |-----------------------------------------------------------|
A |-----------------------------------------------------------|
E |-4-5-4-5-6-5-4-5--4-7-4---------4-5-4-5-7-5-4-5-4-5-4-5----|
A |-4-5-4-5-6-5-4-5--4-7-4-/7-/7---4-5-4-5-7-5-4-5-4-5-4-5----|
    X X X X X X X X  X X X         X X X X X X X X X X X X
  
  Verse #1
B |-----------------------------------------------------------|
F#|-----------------------------------------------------------|
D |-----------------------------------------------------------|
A |-----------------------------------------------------------|
E |-4-5-4-5-6-5-4-5--4-7-4--/5-/7--4-5-4-7-4-5-4-5-4-5-4-5----|
A |-4-5-4-5-6-5-4-5--4-7-4--/5-/7--4-5-4-7-4-5-4-5-4-5-4-5----|
    X X X X X X X X  X X X         X X X X X X X X X X X X

 Chorus      X3                              At End of Chorus Do: X1
B |---------------------------------|----------------------------------|
F#|---------------------------------|----------------------------------|
D |---------------------------------|----------------------------------|
A |------7-6---------5/4-X--4/3-X---|------7-6---------5-4-----3-2-----|
E |-7-6--5-4--3-4-5--3/2-X--2/1-X---|-7-6--5-4-3-4-5---3-2-3---1-0-1---|
A |-7-6-------3-4-5-----------------|-7-6------3-4-5-------3-------1---|

  Verse #2     *-pinch harmonic
B |--------------------------------------------------------------|
F#|--------------------------------------------------------------|
D |--------------------------------------------------------------|
A |--------------------------------------------------------------|
E |-0-1-0-1-2-1-0-1--0-1-0-3--6*---0-1-0-1-2-1-0-1-0-1-0-1-3/2---|
A |-0-1-0-1-2-1-0-1--0-1-0-3-------0-1-0-1-2-1-0-1-0-1-0-1-3/2---|
    X X X X X X X X  X X X         X X X X X X X X X X X X   

  Riff #1 "I won't control, or restrain, things I do not understand"
B |------------------------------------------------------------------|
F#|------------------------------------------------------------------|
D |------------------------------------------------------------------|
A |------------------------------------------------------------------|
E |-----5-5p3-3-3-----5-5p3-3h5-----8-8p7-7-7-------10-10p8-8h10-----|
A |-5-5-----------4-4-----------8-8-----------10-10------------------|
 
 Riff #1 Continued


B |-----------------------------------------------------------------------|
F#|-----------------------------------------------------------------------|
D |-----------------------------------------------------------------------|
A |-----------------------------------------------------------------------|
E |-----5-5p3-3-3-----5-5p3-3h5--7-7-8-8-7-7-8-8-8--8--10-10-8--8--10-10--|
A |-5-5-----------4-4------------8-8-8-8-8-8-8-8-10-10-10-10-10-10-10-10--|


  Riff #2 (it's when bass does riff 3 {see below})
B |-6h5h6h5h6h5h6h5h6h5h6h5h6h5h6h5h6h5h6h5h6h5h6h5h6h5h6h5h6h5h6h5h6h5h6--|
F#|------------------------------------------------------------------------|
D |------------------------------------------------------------------------|
A |------------------------------------------------------------------------|
E |------------------------------------------------------------------------|
A |------------------------------------------------------------------------|
  
  Riff #3 "We have to save ourselves!"
B |------------------------------------------------------|
F#|------------------------------------------------------|
D |------------------------------------------------------|
A |------------------------------------------------------|
E |-8-0--0-000-0-0-8-0-00-0-8-8-8-0-8-11-11-0-0-11-14----|
A |-8-0--0-000-0-0-8-0-00-0-8-8-8-0-8-11-11-0-0-11-14----|
         X XXX X X     XX       X X X       X X

 That took a while. Hope this helped considering the other 2 tabs 
were really bad.
  
   Enjoy! Please Comment/Rate!!!!

| /  slide up
| \  slide down
| h  hammer-on
| p  pull-off
| ~  vibrato
| +  harmonic
| x  Mute note
===============================================================================
Suggest correction new What's this?
You can suggest a correction to this tab. Community and Mods will review your correction and vote to approve or reject it.
comments
print report bad tab
13 comments total. Showing first comments.
0 reply
rongold360 729 wrote on April 18 2009, 07:56 pm

How are there bars? Its A-E-A-D-F#-B. Sorry, just doesnt sound right.

0 reply
thezohan 617 wrote on April 18 2009, 11:39 pm

wait what do you mean by bars?

0 reply
thezohan 617 wrote on April 18 2009, 11:39 pm

Yo, the tuning is exactly how you said

guest
You may want to rate the tab now too:
select rating
Please do not post tabs as comments. Select "correction" instead!