Oops, an error
Loading. Please wait.

Backstabbin Bass Tab

133 views 1 this week
no commentswrite comment
1 2 3 4 5
3 more votes to show rating
add to favorites
launch autoscroll
font size
0
reset
guitar tuner
Autoscroll
slow
fast
+/-
esc
set tempo
stop
Help us to improve Ultimate-Guitar.com Take our survey!
×
Sloan --- Backstabbin'     


Standard Tuning (EADG)

Verse (0:07) x8
G|------------------|
D|------------------|
A|-03-0-00-0330-03--|
E|------------------|

Pre-Chorus
G|------------------|
D|------------------|
A|------3---0000----| x3
E|-1111---1------33-|

G|------------------|
D|------------------|
A|---------------03-|
E|-88888883-1-13---|

Chorus
G|---------------|
D|---------------|
A|-0-00-0330-03--|
E|---------------|

G|------------------|
D|------------------|
A|-03-0-00-0330-03--|
E|------------------|

Verse x4

Pre-Chorus

Rest

Guitar Solo x4
G|------------------|
D|------------------|
A|-03-0-00-0330-03--|
E|------------------|

Verse 2
G|------------------|
D|------------------|
A|-03-0-00-0330-03--| x3
E|------------------|

G|------------------|
D|------------------|
A|-03-0-00-03-------|
E|------------------|

Rest for drum and guitar.

Bridge (2:13)
G|-------------------------------------------------------------------|
D|---------------------------00000--------------------------00000----|
A|-------------0000833333333-------------3---0000833333333---------|
E|-1/8-1~-------------------------0131111---1--------------------013-|

Outro
G|------------------|
D|------------------|
A|------3---0000----| x2
E|-1111---1------33-|

G|---------------------------------------------------|
D|---------------------------------------------------|
A|------3---000000330-00-0330-03-03-0-00-0330-03-03x-|
E|-1111---1------------------------------------------|
Suggest correction
Give kudos to tab author, rate the tab!
1 2 3 4 5
comments
print report bad tab
guest
You may want to rate the tab now too:
select rating
Wanna post a correction for this tab? Suggest correction