Oops, an error
Loading. Please wait.

Cant Face Up Chords

384 views 3 this week
no commentswrite comment
1 2 3 4 5
please rate
add to favorites
launch autoscroll
font size
0
reset
transpose
0
reset
simplify chords
- display chords -
guitar tuner
Tab Pro tools
  • play this tab
  • loop segment
  • change instrument
  • show fretboard
  • metronome
Autoscroll
slow
fast
+/-
esc
set tempo
stop

                              |---------------------------1,2,3

     A             ^ Amaj7         ^ Dm            ^ F         (repeat 4X)
|--------------------------------------------------------------------| |
|----5---5---5---5-X-5---5---5---5-X-6---6---6---6-X-6---6---6---6-X-| |
|----6---6---6---6-X-6---6---6---6-X-7---7---7---7-X-5---5---5---5-X-|:|
|----7---7---7---7-X-6---6---6---6-X-7---7---7---7-X-7---7---7---7-X-|:|
|----0---------------0---------------0---------------0---------------| |
|--------------------------------------------------------------------| |

     Turn around                     You can't face up to me
   I stand my ground             I'm just what I seem to be
     Why in the world,          would you give me a second look?  (play chords E 
B E )
Except I’m up here,And you’re down there

|-4---------------------------

Dm                Dsus2       Dm  Dsus4  Dm             Dsus2       B E B
You'll never know what it took           You don't care what it took

       Dm                   C         E
       The look in your eyes     As I Turn on

     E7(opp)  Dm                       E                E7(opp)
the light.    The look in your eyes   a look of surprise.

                              |---------------------------1,2,3---

     A             ^ Amaj7         ^ Dm            ^ F         (repeat 4X)
|--------------------------------------------------------------------| |
|----5---5---5---5-X-5---5---5---5-X-6---6---6---6-X-6---6---6---6-X-| |
|----6---6---6---6-X-6---6---6---6-X-7---7---7---7-X-5---5---5---5-X-|:|
|----7---7---7---7-X-6---6---6---6-X-7---7---7---7-X-7---7---7---7-X-|:|
|----0---------------0---------------0---------------0---------------| |
|--------------------------------------------------------------------| |

Sneakin' around,                    You can't face up to me
               in this one trick town
I know your crowd          At least not from what I've seen
                and I’m not that proud
     Flies     in the ink    leave  footprints across the sea.   (play chords E 
B E)
Trace them back to where it all gets hard you find the


Dm          Dsus2 Dm  Dsus4  Dm             Dsus4        B E B  E
cuts never  run   too deep   The cuts never run too deep


F#m                 B        G                     A
How many times have I tried  just to get away from you and you reeled me back

F#m                 B                   G          A
How many times have I lied  That’s there’s nothing I can do.  (No, no)  (Repeat)


Follow verse chord pattern

  A              Amaj7      Dm                  F
I stand my ground       I’m just what I seem to be

You swung? me down for so long   for so long            B E B

The weight that I carry    Knowin' what they’ve done to us
                               Dm               Dsus2         Dm  Dsus4
How many names does it take to they blame the people you always should trust?
Dm         Dsus2                E B E
The people you always should trust


Follow same patterns for rest of song.
comments
We did not receive enough feedback on this tab! Please rate:
print report bad tab
1 2 3 4 5
I want to post or [tab]
guest
You may want to rate the tab now too:
select rating
Please do not post tabs as comments. Select "correction" instead!