Oops, an error
Loading. Please wait.

Dreaming Of You Tab

522 views 1 this week
no commentswrite comment
1 2 3 4 5
please rate
add to favorites
launch autoscroll
font size
0
reset
how to read this tab
guitar tuner
Autoscroll
slow
fast
+/-
esc
set tempo
stop
Help us to improve Ultimate-Guitar.com Take our survey!
×
*********************************************
* ||| ||\  | |  |\  /| ||\    ||| /||\  ||\ *
*  |  | /  | |  | \/ | | /     |  |__|  | < *
*  |  | \  \_/  |    | |       |  |  |  ||/ *
*********************************************

TITLE: Dreaming of You
ALBUM: Pretty Together (2001)
ARTIST: Sloan
AUTHOR: Jay Ferguson (Sloan)
KEY: E+
SOURCE: Audio

Tabbed by: Trump_66


RIFF 1

e:--------------------------|--------------------------|
B:--------------------------|--------------------------|
G:-9-(9)-8-(8)-9--8-(8)-9-8-|-6-(6)-5-(5)-6--5-(5)-6-6-|
D:-9-(9)-9-(9)-9--9-(9)-9-9-|-6-(6)-6-(6)-6--6-(6)-6-6-|
A:-7-(7)-7-(7)-7--7-(7)-7-7-|-4-(4)-4-(4)-4--4-(4)-4-4-|
E:--------------------------|--------------------------|


RIFF 1a

e:--------------------------------|
B:-9\7-9\7-9\7-9\7-9\7-9\7-9/10\7-|
G:--------------------------------|
D:--------------------------------|
A:--------------------------------|
E:--------------------------------|


RIFF 2

e:--------------------------|--------------------------|
B:-9=======================-|-6=======================-|
G:-9=======================-|-6=======================-|
D:-9=======================-|-6=======================-|
A:-7=======================-|-4=======================-|
E:--------------------------|--------------------------|


RIFF 2a

e:-7--9-/-4-|
B:----------|
G:----------|
D:----------|
A:----------|
E:----------|


RIFF 3

e:-3==========-0==========|-2==========-3==========|
B:-3==========-2==========|-2==========-3==========|
G:-4==========-2==========|-2==========-4==========|
D:-5==========-2==========|-4==========-5==========|
A:-5==========-0==========|-4==========-5==========|
E:-3==========------------|-2==========-3==========|


RIFF 3 Variation 1

e:-3--3--3--3--0--0--0--0-|-2--2--2--2--3--3--3--3-|
B:-3--3--3--3--2--2--2--2-|-2--2--2--2--3--3--3--3-|
G:-4--4--4--4--2--2--2--2-|-2--2--2--2--4--4--4--4-|
D:-5--5--5--5--2--2--2--2-|-4--4--4--4--5--5--5--5-|
A:-5--5--5--5--0--0--0--0-|-4--4--4--4--5--5--5--5-|
E:-3--3--3--3-------------|-2--2--2--2--3--3--3--3-|


RIFF 4

e:-5-5-|
B:-5-5-|
G:-6-6-|
D:-7-7-|
A:-7-7-|
E:-5-5-|


RIFF 5

e:----2-0------2-0------2-0---0-----5-4-0-2--5-4-0-2--|
B:-0------4-0------4-0------4---4-0-------------------|
G:----------------------------------------------------|
D:----------------------------------------------------|
A:----------------------------------------------------|
E:----------------------------------------------------|

e:-5-4-0-2--5-4-0-7-5-4-5-4-0--|
B:-----------------------------|
G:-----------------------------|
D:-----------------------------|
A:-----------------------------|
E:-----------------------------|


RIFF 6 (solo)

e:---------------0------2---2---3--7-5------9-12-9-10-|
B:-------------2---2-3----3---3--------8-5------------|
G:-0--4-2-0-------------------------------------------|
D:----------2-----------------------------------------|
A:----------------------------------------------------|
E:----------------------------------------------------|

e:-12-9-10-12-9-10-|
B:-----------------|
G:-----------------|
D:-----------------|
A:-----------------|
E:-----------------|


RIFF 7

e:-5-5--------|
B:-5-5--9====-|
G:-6-6--9====-|
D:-7-7--9====-|
A:-7-7--7====-|
E:-5-5--------|


^^^^^^^^^^^^^^^^^^^^^^^^^^^^^^^^^^^^^^^^^^^^^^^^^^^^^^^^^^^^
INTEGRATION WITH SONG:

^^^^^^^^^^^^^^^^^^^^^^^^^^^^^^^^^^^^^^^^^^^^^^^^^^^^^^^^^^^^
RIFF 1 (repeat as necessary)

^^^^^^^^^^^^^^^^^^^^^^^^^^^^^^^^^^^^^^^^^^^^^^^^^^^^^^^^^^^^
RIFF 1a enters (RIFF 1 continues)

^^^^^^^^^^^^^^^^^^^^^^^^^^^^^^^^^^^^^^^^^^^^^^^^^^^^^^^^^^^^
RIFF 2 & RIFF 2a (repeat as necessary)

^^^^^^^^^^^^^^^^^^^^^^^^^^^^^^^^^^^^^^^^^^^^^^^^^^^^^^^^^^^^
RIFF 3 (repeat as necessary)

^^^^^^^^^^^^^^^^^^^^^^^^^^^^^^^^^^^^^^^^^^^^^^^^^^^^^^^^^^^^
RIFF 4

RIFF 2 & RIFF 2a

^^^^^^^^^^^^^^^^^^^^^^^^^^^^^^^^^^^^^^^^^^^^^^^^^^^^^^^^^^^^
RIFF 1 & RIFF 1a (repeat as necessary)

^^^^^^^^^^^^^^^^^^^^^^^^^^^^^^^^^^^^^^^^^^^^^^^^^^^^^^^^^^^^
RIFF 2 & RIFF 2a (repeat as necessary)

^^^^^^^^^^^^^^^^^^^^^^^^^^^^^^^^^^^^^^^^^^^^^^^^^^^^^^^^^^^^
RIFF 3 Variation 1

^^^^^^^^^^^^^^^^^^^^^^^^^^^^^^^^^^^^^^^^^^^^^^^^^^^^^^^^^^^^
RIFF 5

^^^^^^^^^^^^^^^^^^^^^^^^^^^^^^^^^^^^^^^^^^^^^^^^^^^^^^^^^^^^
RIFF 3 & RIFF 6 (solo interlude)

^^^^^^^^^^^^^^^^^^^^^^^^^^^^^^^^^^^^^^^^^^^^^^^^^^^^^^^^^^^^
RIFF 3 Variation 1

^^^^^^^^^^^^^^^^^^^^^^^^^^^^^^^^^^^^^^^^^^^^^^^^^^^^^^^^^^^^
RIFF 7

^^^^^^^^^^^^^^^^^^^^^^^^^^^^^^^^^^^^^^^^^^^^^^^^^^^^^^^^^^^^
FINI
_____________________________

FOR SUGGESTIONS, COMMENTS, OR CORRECTIONS E-MAIL trump_66@yahoo.co.uk
Suggest correction new What's this?
You can suggest a correction to this tab. Community and Mods will review your correction and vote to approve or reject it.
comments
We did not receive enough feedback on this tab! Please rate:
print report bad tab
1 2 3 4 5
guest
You may want to rate the tab now too:
select rating
Please do not post tabs as comments. Select "correction" instead!