Oops, an error
Loading. Please wait.

Everything Youve Done Wrong Bass Tab

963 views 3 this week
no commentswrite comment
1 2 3 4 5
please rate
add to favorites
launch autoscroll
font size
0
reset
guitar tuner
Autoscroll
slow
fast
+/-
esc
set tempo
stop
Help us to improve Ultimate-Guitar.com Take our survey!
×
Author
Difficulty
intermediate
[INTRO]
  C#m7     B        Aadd9    Aadd9    C#m7     B        Aadd9    Aadd9    
G:--------|--------|-22-----|-22-----|--------|--------|-22-----|-22-----|
D:--------|--------|--------|--------|--------|--------|--------|--------|
A:4-4-4-42|2-2-22--|0--0----|0--0----|4-4-4-42|2-2-22--|0--0----|0--0--2-|
E:-----4--|--------|--------|--------|-----4--|--------|--------|--------|

[VERSE]
  Em               A                  D                 G          G/F#
    Do the time to pay the price, for everything you've done wrong baby
  Em                 A                    D               D7
    In your life you get so high, there's nowhere left to go but down
  Em                   A                    D                  G       G/F#
    Don't believe that no one cares, 'cause we're here waiting for you baby
  Em                  A                  D       D7
    Do your time, and then come home for good

  Em       A        D        G   G/F# Em       A        D        D7    
G:--------|--------|--------|--------|--------|--------|--------|--------|
D:--------|--------|0---0-4-|5 5-4 4-|2-0-----|--------|0---0---|--------|
A:------2-|0-2-4-0-|--4-----|--------|----4-2-|0-2-4-0-|--4---4-|2-0---0-|
E:0-2-3---|--------|--------|--------|--------|--------|--------|----3---|

  Em       A        D        G   G/F# Em       A        D        D7    
G:--------|--------|--------|--------|--------|--------|--------|--------|
D:--------|--------|0---0-4-|5 5-4 4-|2-0-----|--------|0---0---|--------|
A:------2-|0-2-4-0-|--4-----|--------|----4-2-|0-2-4-0-|--4---4-|2-2-2---|
E:0-2-3---|--------|--------|--------|--------|--------|--------|--------|

[CHORUS]
           C#m7           B           Aadd9
  So don't hide yourself away,             let it shine, let it shine
        C#m7           B           Aadd9
  Don't hide yourself away,             let it shine, let it shine

  C#m7     B        Aadd9    Aadd9    C#m7     B        Aadd9    Aadd9    
G:--------|--------|-22-----|-22-----|--------|--------|-22-----|-22-----|
D:--------|--------|--------|--------|--------|--------|--------|--------|
A:4-4-4-42|2-2-22--|0--0----|0--0----|4-4-4-42|2-2-22--|0--0----|0--0--2-|
E:-----4--|--------|--------|--------|-----4--|--------|--------|--------|

[INSTRUMENTAL]
  Em       A        D        G   G/F# Em       A        D        D7    
G:--------|--------|--------|--------|--------|--------|--------|--------|
D:--------|--------|0---0-4-|5 5-4 4-|2-0-----|--------|0---0---|--------|
A:------2-|0-2-4-0-|--4-----|--------|----4-2-|0-2-4-0-|--4---4-|2-0---0-|
E:0-2-3---|--------|--------|--------|--------|--------|--------|----3---|

[VERSE]
  Em            A                  D               G        G/F#
    If you ever feel in doubt, you have a place in my heart baby
  Em          A                D               D7
    If I ever feel left out, I know I've got a place in yours
  Em                     A                  D               G          G/F#
    Don't believe that I wouldn't dare   to go and take you right back baby
  Em                  A                  D       D7
    Do your time, and then come home for good

  Em       A        D        G   G/F# Em       A        D        D7    
G:--------|--------|--------|--------|--------|--------|--------|--------|
D:--------|--------|0---0-4-|5 5-4 4-|2-0-----|--------|0---0---|--------|
A:------2-|0-2-4-0-|--4-----|--------|----4-2-|0-2-4-0-|--4---4-|2-0---0-|
E:0-2-3---|--------|--------|--------|--------|--------|--------|----3---|

  Em       A        D        G   G/F# Em       A        D        D7    
G:--------|--------|--------|--------|--------|--------|--------|--------|
D:--------|--------|0---0-4-|5 5-4 4-|2-0-----|--------|0---0---|--------|
A:------2-|0-2-4-0-|--4-----|--------|----4-2-|0-2-4-0-|--4---4-|2-2-2---|
E:0-2-3---|--------|--------|--------|--------|--------|--------|--------|

[CHORUS]
           C#m7           B           Aadd9
  So don't hide yourself away,             let it shine, let it shine
        C#m7           B           Aadd9
  Don't hide yourself away,             let it shine, let it shine

  C#m7     B        Aadd9    Aadd9    C#m7     B        Aadd9    Aadd9    
G:--------|--------|-22-----|-22-----|--------|--------|-22-----|-22-----|
D:--------|--------|--------|--------|--------|--------|--------|--------|
A:4-4-4-42|2-2-22--|0--0----|0--0----|4-4-4-42|2-2-22--|0--0----|0--0----|
E:-----4--|--------|--------|--------|-----4--|--------|--------|--------|

        C#m7           B           Aadd9
  Don't hide yourself away,             let it shine, let it shine
        C#m7           B           Aadd9
  Don't hide yourself away,             

  C#m7     B        Aadd9    Aadd9    C#m7     B        Aadd9    Aadd9    
G:--------|--------|-22-----|-22-----|--------|--------|-22-----|-22-----|
D:--------|--------|--------|--------|--------|--------|--------|--------|
A:4-4-4-42|2-2-22--|0--0----|0--0----|4-4-4-42|2-2-22--|0--0----|0--0--2-|
E:-----4--|--------|--------|--------|-----4--|--------|--------|--------|

[INSTRUMENTAL]
 (GUITAR SOLO)
  Em       A        D        G   G/F# Em       A        D        D7    
G:--------|--------|--------|--------|--------|--------|--------|--------|
D:--------|--------|0---0-4-|5 5-4 4-|2-0-----|--------|0---0---|--------|
A:------2-|0-2-4-0-|--4-----|--------|----4-2-|0-2-4-0-|--4---4-|2-0---0-|
E:0-2-3---|--------|--------|--------|--------|--------|--------|----3---|
 (TRUMPET SOLO)
  Em       A        D        G   G/F# Em       A        D        D7    
G:--------|--------|--------|--------|--------|--------|--------|--------|
D:--------|--------|0---0-4-|5 5-4 4-|2-0-----|--------|0---0---|--------|
A:------2-|0-2-4-0-|--4-----|--------|----4-2-|0-2-4-0-|--4---4-|2-0---0-|
E:0-2-3---|--------|--------|--------|--------|--------|--------|----3---|

[VERSE]
  Em               A                  D                 G          G/F#
    Do the time to pay the price, for everything you've done wrong baby
  Em                 A                    D               D7
    In your life you get so high, there's nowhere left to go but down
  Em                   A                    D                  G       G/F#
    Don't believe that no one cares, 'cause we're here waiting for you baby
  Em                  A                  D       D7
    Do your time, and then come home for good

  Em       A        D        G   G/F# Em       A        D        D7    
G:--------|--------|--------|--------|--------|--------|--------|--------|
D:--------|--------|0---0-4-|5 5-4 4-|2-0-----|--------|0---0---|--------|
A:------2-|0-2-4-0-|--4-----|--------|----4-2-|0-2-4-0-|--4---4-|2-0---0-|
E:0-2-3---|--------|--------|--------|--------|--------|--------|----3---|

  Em       A        D        G   G/F# Em       A        D        D7    
G:--------|--------|--------|--------|--------|--------|--------|--0-----|
D:--------|--------|0---0-4-|5 5-4 4-|2-0-----|--------|0---0---|------4-|
A:------2-|0-2-4-0-|--4-----|--------|----4-2-|0-2-4-0-|--4---4-|2---2---|
E:0-2-3---|--------|--------|--------|--------|--------|--------|--------|

[CODA]
  Em                  A                  D       G
    Do your time, and then come home for good
  Em                  A                  D
    Do your time, and then come home for good

  Em       A        D        G        Em       A        D   
G:--------|--------|--------|--------|--------|--------|--------|
D:--------|--------|0---0---|--4-0---|--------|--------|0~~~~~~~|
A:------2-|0-2-4-0-|--4---4-|2-----4-|------2-|0       |--------|
E:0-2-3---|--------|--------|--------|0-2-3---|--------|--------|

Tabbed by Michael Oxner (moxner@nbnet.nb.ca)
Suggest correction
Give kudos to tab author, rate the tab!
1 2 3 4 5
comments
print report bad tab
guest
You may want to rate the tab now too:
select rating
Wanna post a correction for this tab? Suggest correction