Oops, an error
Loading. Please wait.

Fade Away Bass Tab

77 views 1 this week
no commentswrite comment
1 2 3 4 5
please rate
add to favorites
launch autoscroll
font size
0
reset
guitar tuner
Tab Pro tools
  • play this tab
  • loop segment
  • change instrument
  • show fretboard
  • metronome
Autoscroll
slow
fast
+/-
esc
set tempo
stop
Sloan --- Fade Away   


Standard Tuning (EADG)

Intro
G|------------------|
D|-0000000000000330-|
A|------------------|
E|------------------|

G|-0000000000000000---------------------------------------00000/12-|
D|-----------------33333-3--3333-3--------1111111110000023----------|
A|---------------------------------3333333--------------------------| x2
E|----------------------1-1-----1-1---------------------------------|

Verse x2
G|-0000000000000000---------------------------------------00000/12-|
D|-----------------33333-3--3333-3--------1111111110000023----------|
A|---------------------------------3333333--------------------------| 
E|----------------------1-1-----1-1---------------------------------|

Chorus
G|--------------------------------------------------------000000000-|
D|----------------------------------------1111111110000023----------|
A|-1111111111111111----------------3333333--------------------------| 
E|-----------------1111111111111111---------------------------------|

Verse x2
Chorus x2

Guitar Solo x2
G|-0000000000000000---------------------------------------00000/12-|
D|-----------------33333-3--3333-3--------1111111110000023----------|
A|---------------------------------3333333--------------------------| 
E|----------------------1-1-----1-1---------------------------------|

Chorus x2

Guitar Solo 2
G|-0000000000000000---------------------------------------00000/12-|
D|-----------------33333-3--3333-3--------1111111110000023----------|
A|---------------------------------3333333--------------------------| x3
E|----------------------1-1-----1-1---------------------------------|

G|-0000000000000000------------------------------------------------0~-|
D|-----------------33333-3--3333-3--------1111111110-0-0-0/5-1-2-3----|
A|---------------------------------3333333----------------------------| 
E|----------------------1-1-----1-1-----------------------------------|
comments
We did not receive enough feedback on this tab! Please rate:
print report bad tab
1 2 3 4 5
I want to post or [tab]
guest
You may want to rate the tab now too:
select rating
Please do not post tabs as comments. Select "correction" instead!