Oops, an error
Loading. Please wait.

Live On Bass Tab

92 views 1 this week
no commentswrite comment
1 2 3 4 5
please rate
add to favorites
launch autoscroll
font size
0
reset
guitar tuner
Autoscroll
slow
fast
+/-
esc
set tempo
stop
Help us to improve Ultimate-Guitar.com Take our survey!
×
Sloan --- Live On     


Standard Tuning (EADG)

Verse (0:15)
G|--------------------------|
D|--------------------------|
A|------0---0----02---2-----|
E|-2---2-----00--------02---|

Pre-Chorus
G|----------------------------------|
D|----------------------------------|
A|---------00000000--------22222222-|
E|-22222222--------00000000---------|

Chorus x2
G|----------------------------------|
D|----------------------------------|
A|---------00000000--------22222222-|
E|-22222222--------00000000---------|

Verse x3
Pre-Chorus x2

Chorus 2
G|----------------------------------|
D|----------------------------------|
A|---------00000000--------22222222-|
E|-22222222--------00000000---------|

G|------------------------------------------|
D|------------------------------------------|
A|---------00000000--------2222222222222222-|
E|-22222222--------00000000-----------------|

Verse x4
Pre-Chorus x2
Chorus x4

Outro
G|--------------------------|
D|--------------------------|
A|------0---0----02---2-----|
E|-2---2-----00--------02~--|
	
Suggest correction
Give kudos to tab author, rate the tab!
1 2 3 4 5
comments
print report bad tab
guest
You may want to rate the tab now too:
select rating
Wanna post a correction for this tab? Suggest correction