Oops, an error
Loading. Please wait.

Losing California Tab

4,350 views 3 this week
no commentswrite comment
1 2 3 4 5
please rate
add to favorites
launch autoscroll
font size
0
reset
how to read this tab
guitar tuner
Autoscroll
slow
fast
+/-
esc
set tempo
stop
Help us to improve Ultimate-Guitar.com Take our survey!
×
Author
Sloan - Losing California
Album: Between the Bridges
Standard Tuning

-=Intro=-

Play this with a shuffle feel
e|------------------------------------------|
B|------------------------------------------|
G|------------------------------------------|
D|------7-7-7--7-7-7--7-7-7--7-7-7----------|
A|------7-7-7--7-7-7--7-7-7--7-7-7----------|
E|------5-5-5--5-5-5--5-5-5--5-5-5----------| x2
  P.M.  * * *  * * *  * * *  * * *

e|------------------------------------------|
B|------------------------------------------|
G|-----------7--------2---------------------|
D|--7--------7--------1--------2------------|
A|--7--------5--------2--------2------------|
E|--5--------------------------0------------| x2
Let each chord ring and the second time this is played, instead
of playing the last chord a fill is played that sounds something like this:

e|------------------------------------------|
B|------------------------------------------|
G|------------------------------------------|
D|------------------------------------------|
A|---------------2--5-----------------------|
E|---///0--3--4--------5--4-----------------|

-=Verse=-

e|-------------------------------------------------------|
B|-------------------------------------------------------|
G|--------------7--7--------2--2-----2-------------------|
D|--7--7-----5--7--7-----7--1--1-----1--2--2-------------|
A|--7--7-----5--5--5-----7--2--2-----2--2--2-------------|
E|--5--5-----3-----------5--------------0--0---3br--3br--|

e|-------------------------------------------------------|
B|-------------------------------------------------------|
G|--------------7--7--------2--2-----2-------------------|
D|--7--7-----5--7--7-----7--1--1-----1--2--2----2-2-2-2--|
A|--7--7-----5--5--5-----7--2--2-----2--2--2----2-2-2-2--|
E|--5--5-----3-----------5--------------0--0----0-0-0-0--|

-=Chorus=-

Play Twice
e|-------------------------------------------------------------|
B|-------------------------------------------------------------|
G|----------------------------4-4-4-4-4-4-4-7-(7)-7-7-7-7-7-7--|
D|--7---7--(7)---7--7--7--7---4-4-4-4-4-4-4-7-(7)-7-7-7-7-7-7--|
A|--7---7--(7)---7--7--7--7---2-2-2-2-2-2-2-5-(5)-5-5-5-5-5-5--|
E|--5---5--(5)---5--5--5--5------------------------------------|

-=Verse 2=-

Play twice
e|-----------------------------------------------|
B|-----------------------------------------------|
G|--------------7--7--------2--2-----2-----------|
D|--7--7-----5--7--7-----7--1--1-----1--2--2-----|
A|--7--7-----5--5--5-----7--2--2-----2--2--2-----|
E|--5--5-----3-----------5--------------0--0-----|

-=Chorus 2=-

Same as first Chorus

-=Bridge=-

Play Twice
e|-------------------------------------------------------|
B|-------------------------------------------------------|
G|-------------1--1----1-------------4--4--(4)-----------|
D|--4--4----4--2--2----2--7--7----7--4--4--(4)-----------|
A|--4--4----4--2--2----2--7--7----7--2--2--(2)-----------|
E|--2--2----2-------------5--5----5----------------------|

-=Solo=-

Play Intro 12x under this                
e|------------------------------------------|
B|--2------3------4------5------------------|
G|--4b-----5b-----6b-----7b-----------------|
D|------------------------------------------|
A|------------------------------------------|
E|------------------------------------------|
                         ~Let Ring

Play Verse two under the rest of the solo
e|----------------------------------------------|
B|--4--5--8p5----5--8p5----5--8p5----5--8p5-----|
G|------------7b--------7b--------7b--------7b--|
D|----------------------------------------------|
A|----------------------------------------------|
E|----------------------------------------------|

e|--------------------------------------|
B|--5--5--5--8b--5h8p5------------------|
G|---------------------7p5----------5---|
D|-------------------------7p5--7p5-----|
A|--------------------------------------|
E|--------------------------------------|

e|--------------------------------------|
B|----------------------------8-8b------|
G|--------------------7---7b------------|
D|--7p5-----------7---------------------|
A|-------7p5--7p5-----------------------|
E|--------------------------------------|

e|--15--15--14--14--12--10----14--14--12--12--10--9---8----|
B|--17--17--15--15--14--12----15--15--14--14--12--10--11b--|
G|---------------------------------------------------------|
D|---------------------------------------------------------|
A|---------------------------------------------------------|
E|---------------------------------------------------------|

-=Verse 3=-

Same as first Verse

-=Bridge 2=-

Same as first Bridge

-=Chorus 4=-

Play 4 times
e|-------------------------------------------------------------|
B|-------------------------------------------------------------|
G|--4---4--(4)---4--4--4--4---6-6-6-6-6-6-6--------------------|
D|--4---4--(4)---4--4--4--4---6-6-6-6-6-6-6-2-(2)-2-2-2-2-2-2--|
A|--2---2--(2)---2--2--2--2---4-4-4-4-4-4-4-2-(2)-2-2-2-2-2-2--|
E|------------------------------------------0-(0)-0-0-0-0-0-0--|

-=Outro=-

e|-------------------------------------------------------|
B|-------------------------------------------------------|
G|---------------------------------------4---(4)---------|
D|--6--6--(6)------6--4--4--(4)-------4--4---(4)---------|
A|--6--6--(6)------6--4--4--(4)-------4--2---(2)---------|
E|--4--4--(4)------4--2--2--(2)-------2------------------|


And that's it. Any feedback or suggestions leave a comment.
Suggest correction
What's this?
You can suggest a correction to this tab. Community and Mods will review your correction and vote to approve or reject it.
comments
We did not receive enough feedback on this tab! Please rate:
print report bad tab
1 2 3 4 5
guest
You may want to rate the tab now too:
select rating
Please do not post tabs as comments. Select "correction" instead!