Oops, an error
Loading. Please wait.

Money City Maniacs Bass Tab

version 1
version 1

Whole song

Interactive

2,197 views 3 this week
no commentswrite comment
1 2 3 4 5
accurate
x 3
add to favorites
launch autoscroll
font size
0
reset
guitar tuner
Autoscroll
slow
fast
+/-
esc
set tempo
stop
Help us to improve Ultimate-Guitar.com Take our survey!
×
ARTIST: SLOAN
SONG: MONEY CITY MANIACS
TABLATURE BY: BRAM GIELEN

hey. i'm not sure of some of the more complicated bass fills on this one, so i put in what i 
thought the general idea was.

INTRO:

G------------------------------------------     (repeat as many times as necessary before main
D------------------------------------------     riff begins)
A-2-2-2-2-2-2-2-2-2-2-2-2-2-2-2-2-2-2-2-2-2
E------------------------------------------


VERSE RIFF:

G----------------       
D---0-----2------
A-2---0----------
E-----------0-0--

VERSE FILL:

G-2/4------------
D-----4-2-4------
A----------------
E----------------


CHORUS:
("and the joke is, when he awoke his body was covered in coke fizz")

G--------------------0---0---7--------
D-2---2----0-0-0-0---------0---0-2----
A-------2----------0------------------
E---0------------------3------------0-


GUITAR SOLO:

G-------------------------------------------------
D-------------------------------------------------
A-2-2-2-2---------2-2-2-2----------2--2--2--2-----
E---------0-0-0-0---------0-0-0-0-----------------


QUIETER PART BEFORE CHORUS (when they sing the "hey you" thing for the second time)

G--------------------------------4--2-----2-------
D--------------------------------------4-----4--2-
A-2---2---2---2---2---2---2---2-------------------
E-------------------------------------------------

CHORUS

and that's it. email me at: ovenbakedgoods@hotmail.com , or check out my band's web page at
http://moshbunker.cjb.net
Suggest correction
Give kudos to tab author, rate the tab!
1 2 3 4 5
comments
print report bad tab
guest
You may want to rate the tab now too:
select rating
Please do not post tabs as comments. Select "correction" instead!