Oops, an error
Loading. Please wait.

Nothing Lasts Forever Anymore Bass Tab

189 views 1 this week
no commentswrite comment
1 2 3 4 5
please rate
add to favorites
launch autoscroll
font size
0
reset
guitar tuner
Tab Pro tools
  • play this tab
  • loop segment
  • change instrument
  • show fretboard
  • metronome
×
Best way to learn
"Nothing Lasts Forever Anymore"
Autoscroll
slow
fast
+/-
esc
set tempo
stop
Sloan --- Nothing Lasts Forever Anymore  


Standard Tuning (EADG)

Great Song!
It was hard to tab so please rate it.

Intro
G|----------------------------------|
D|-35555---35555---35555---35555----|
A|----------------------------------|
E|------------------------------10--|

Verse
G|------------------------------------------------------------------|
D|------------------------------------------------------------------|
A|-----------------3---3---3h5-5-------------------3---3---5---5----|
E|-3---3---3---3-------------------3---3---3---3--------------------|

G|------------------------------------------------------------------|
D|------------------------------------------------------------------|
A|---3--3---3--3/83---3---3h5-5-----3--3---3--3/86---5---3---1----|
E|-33-33--33-33--------------------33-33--33-33---------------------|

G|------------------------------------------------------------------|
D|------------------------------------------------------------------|
A|-----------------3---3/5~------------------------3---3---5---5----|
E|-3---3---3---3-------------------3---3---3---3--------------------|

G|--------------------------------------------------|
D|--------------------------------------------------|
A|-----------------3---3---5---5--------------------|
E|-3---3---3---3-------------------3~---------------|

Chorus
G|------------------------------------------------------|
D|------------------------------------------------------|
A|-3---3---3h5-5---5-------------------3---3---5---5----|
E|---------------------3---3---3---3--------------------|

G|------------------------------------------------------------------|
D|------------------------------------------------------------------|
A|---3--3---3--3/83---3---3h5-5-----3--3---3--3/86---5---3---1----|
E|-33-33--33-33--------------------33-33--33-33---------------------|

G|---------------------------------|
D|---------------------------------|
A|-----------------3---3/5~--------|
E|-3---3---3---3---------------10-|

Guitar Solo
G|------------------------------------------------------------------|
D|------------------------------------------------------------------|
A|-----------------3---3---3h5-5-------------------3---3---5---5----| x2
E|-3---3---3---3-------------------3---3---3---3--------------------|

G|-----------------|
D|-----------------|
A|-----------------|
E|-3-3-3-3-3-3-3-3-|

Chorus 2
G|------------------------------------------------------|
D|------------------------------------------------------|
A|-3---3---3h5-5---5-------------------3---3---5---5/15|
E|---------------------3---3---3---3--------------------|

G|------------------------------------------------------------------|
D|------------------------------------------------------------------|
A|-----------------3---3---3h5-5-------------------3---3---5---5----| 
E|-3---3---3---3-------------------3---3---3---3--------------------|

G|------------------------------------------------------------------|
D|------------------------------------------------------------------|
A|---3--3---3--3/83---3---3h5-5-----3--3---3--3/86---5---3---1----|
E|-33-33--33-33--------------------33-33--33-33---------------------|

G|------------------|
D|------------------|
A|--------------10-|
E|-3-3-3-3-3-3-3----|

Bridge Part 1
G|------------------------------------------------------------------|
D|-------------------------------7h8-6~-----------------------------|
A|--------4/6-6-6-6----------------------4/86~----6----------------|
E|-4-4-4-4----------6-6-6-6-6-6-6-------------------6-6-6-6-6-6-6-6-|

G|--------------------------------------------------|
D|--------------------------------------------------|
A|---------6-6-6-6----------------------3h4/6-6-6-6-|
E|-4-4-4-4---------6-6-6-6-6-6-6-6-4-4-4------------|

Bridge Part 2
G|------------------------------------------------------------------|
D|-------------------------------------------------1---0------------|
A|-----------------3---3---3h5-5---------------------------3---1----|
E|-3---3---3---3-------------------3---3---3---3--------------------|

Outro
G|-------------------------------|
D|-35555---35555---35555---35555-|
A|-------------------------------|
E|-------------------------------|
	

comments
We did not receive enough feedback on this tab! Please rate:
print report bad tab
1 2 3 4 5
I want to post or [tab]
guest
You may want to rate the tab now too:
select rating
Please do not post tabs as comments. Select "correction" instead!