Oops, an error
Loading. Please wait.

The Good In Everyone Bass Tab

version 2
version 2

Whole song

Interactive

541 views 1 this week
no commentswrite comment
1 2 3 4 5
please rate
add to favorites
launch autoscroll
font size
0
reset
guitar tuner
Tab Pro tools
  • play this tab
  • loop segment
  • change instrument
  • show fretboard
  • metronome
×
Best way to learn
"The Good In Everyone"
Autoscroll
slow
fast
+/-
esc
set tempo
stop
Contributor
   The Good In Everyone Bass Tab
ringtone link Send "The Good In Everyone" Ringtone to your Cell Phone ringtone link

The Good In Everyone
                                  Sloan
             Album "One Chord to Another"        Rock On
This is my iterpretation of it, It's pretty close.
E-Mail me at :psmith@marathon.Lakeheadu.ca
Att'n Thomas Smith

         Noisy Stuff                 4x    w           1st Verse
G---||---------------------------------||-----||--||--------------------|
D---||--------------------------------*||-----||--||*-------------------|
A---||--------------------------------*||-----||--||*--------5h6--------|
E---||--5--5--3--5--3--5--3--5--5--5---||--5--||--||---7--7-------5-----|


    q  q   3x  q  q  q q  q  q  q       q  q  q q  e  q  q   3x  q
G----------||----------------------||----------------------||------------|
D---------*||-------------7--6--4--||*----------------------*||----------|
A---------*||--------5h6-----------||*--------5h6-----------*||----------|
E---5--5---||--7--7----------------||---7--7-------5--5--5---||--7-------|


    q  q  q      Chorus
G-------------||--||--------------------------------------------------------|
D-------------||--||*-------------------------------------------------------|
A-------------||--||*--6--6--6--6--6-----------------4--4--4--4--4----------|
E---7--7--7--||--||-------------------6--6--6--6--6-------------------4-----|


    q  q  e  q             Verse2
G----------------||--||--------------------------------------|----------|
D---------------*||--||*-------------------7--6--4-----------|----------|
A---------------*||--||*--------5h6--5--------------7--5--4--|----------|
E---4--4--4--4---||--||---7--7----------5--------------------|--7--7----|

G------------------------------------||---------------------------------|
D--------------7--6--4-----4--6--7--*||---------------------------------|
A---5h6--5--------------5-----------*||--6--6--6--6--6------------------|
E-----------5------------------------||-----------------6--6--6--6------|

G-----------------------------------------------|
D-----------------------6--4--------------------|
A------4--4--4--4--4--------6--4--6-4-----------|
E---6--------------------------------------6--4-|


G|------------------|-----|
D|*-----------------|-----|
A|*--6--6--6--6--6--|-----|
E|------------------|-----|
comments
We did not receive enough feedback on this tab! Please rate:
print report bad tab
1 2 3 4 5
I want to post or [tab]
guest
You may want to rate the tab now too:
select rating
Please do not post tabs as comments. Select "correction" instead!