Oops, an error
Loading. Please wait.

The Rest Of My Life Bass Tab

395 views 1 this week
no commentswrite comment
1 2 3 4 5
please rate
add to favorites
launch autoscroll
font size
0
reset
guitar tuner
Autoscroll
slow
fast
+/-
esc
set tempo
stop
Help us to improve Ultimate-Guitar.com Take our survey!
×
Sloan --- The Rest of my Life     

Intro
G|----------11----------------------------|
D|-------11----14-------------------------|
A|----12----------------------------------|
E|-14-------------12-12-12-12-12-12-12-12-|

Verse
G|-----------------------------------------------------------------|
D|-----------------------------------------------------------------|
A|---------2-2-2-2-0-0-0-0-----2-2---------2-2-2-2-----------------|
E|-0-0-0-0-----------------0-0-----0-0-0-0---------2-2-2-2-0-2-2-4-|

G|----------------------------|
D|----------------------------|
A|----2--4~----4--2~----2--0~-|
E|-44-------------------------|

Pre-Chorus
G|--------------------|      G|-----------------------------|
D|--------------------|      D|-----------------------------|
A|--------4-2-0-0-0-0-| x3   A|-/12121212121212121212121212-|
E|-4~-----------------|      E|-----------------------------|

Chorus
G|-----------------------------------------------------------------|
D|-----------------------------------------------------------------|
A|-----------------2-2-2-2-2-2-2-2-----------------4-4-2-2-0-0-0-0-|
E|-0-0-0-0-0-0-0-0-----------------2-2-2-2-4-4-4-4-----------------|

Post-Chorus
G|-----------------|
D|-2-2-2-2-2-2-2-2-|
A|-----------------|
E|-----------------|

Verse 2
G|----------------------------------------------------------------11----|
D|-------------------------------------------------------------11----14-|
A|---------2-2-2-2/7---------------------2-2-2-2/7----------12----------|
E|-0-0-0-0-------------7---9-0---0-0-0-0-------------7---14-------------|

Chorus
Pre-Chorus

Bridge
G|---------------------------11----|
D|------------------------11----14-|
A|---------------------12----------|
E|-0~-------/7~-----14-------------|

Outro Chorus
G|---------------------------------------------------------|
D|---------------------------------------------------------|
A|-----------------2-2-2-2-2-2-2-2-----------------4-4-2-2-|
E|-0-0-0-0-0-0-0-0-----------------2-2-2-2-4-4-4-4---------|

G|--------------------------------------------------------------------------|
D|--------------------------------------------------------------------------|
A|-----------------2-2-2-2-2-2-2-2-----------------4-4-2-2------------------|
E|-0-0-0-0-0-0-0-0-----------------2-2-2-2-4-4-4-4---------0-0-0-0-0-0-0-0-0|
Suggest correction
What's this?
You can suggest a correction to this tab. Community and Mods will review your correction and vote to approve or reject it.
comments
We did not receive enough feedback on this tab! Please rate:
print report bad tab
1 2 3 4 5
guest
You may want to rate the tab now too:
select rating
Please do not post tabs as comments. Select "correction" instead!