Oops, an error
Loading. Please wait.

Who Loves Life More Bass Tab

72 views 1 this week
no commentswrite comment
1 2 3 4 5
please rate
add to favorites
launch autoscroll
font size
0
reset
guitar tuner
Autoscroll
slow
fast
+/-
esc
set tempo
stop
Help us to improve Ultimate-Guitar.com Take our survey!
×
Sloan --- Who Loves Life More?  


Standard Tuning (EADG)

Intro x2
G|----------------------------------|
D|----00------00------00------00----|
A|-330-----330--11-330-----330--33--|
E|----------------------------------|

Verse
G|------------------------------------------------------------------|
D|----0000000000000---00--------------0000000000000---00------------|
A|-330-------------330--11111111111330-------------330--33333333333-|
E|------------------------------------------------------------------|

Chorus
G|------------------------------------------------------------------|
D|----0000000000000000----------------------------------------------|
A|-330----------------33333333333333332222222222222222----0--01--13-|
E|----------------------------------------------------3--3----------|

G|---------------------------------------------------------------|
D|-0000000000000000----------------------------------------------|
A|-----------------33333333333333332222222222222222----0--01--13-|
E|-------------------------------------------------3--3----------|

Intro
Verse
Chorus

Rest

Bridge
G|----------------------------------|
D|----00------00------00------00----|
A|-330-----330--11-330-----330--33--|
E|----------------------------------|

G|------------------|
D|------------------|
A|-330----0--01--13-|
E|----3--3----------|

Chorus
Intro
	
Suggest correction
Give kudos to tab author, rate the tab!
1 2 3 4 5
comments
print report bad tab
guest
You may want to rate the tab now too:
select rating
Wanna post a correction for this tab? Suggest correction