Oops, an error
Loading. Please wait.

Crockpot Tab

version 1
version 1

Whole song

  • This version is a full, comprehensive tab of the w... Show more
193 views 15 this week
no commentswrite comment
1 2 3 4 5
3 more votes to show rating
add to favorites
launch autoscroll
font size
0
reset
how to read this tab
guitar tuner
Autoscroll
slow
fast
+/-
esc
set tempo
stop
Help us to improve Ultimate-Guitar.com Take our survey!
×
Author
Difficulty
novice
About this tab version
This version is a full, comprehensive tab of the whole song from top to bottom. Includes the intro, verse, chorus, solo, outro, strumming patterns, and lyrical cues. Was this info helpful? Yes No
Slothrust
“Crockpot”
Of Course You Do (2013)

Tuning - Standard (EADGBe)

First off, credit to user emrose13423 for tabbing first, her tab
helped me get on track to figure out this tab.

Here’s a link to a live performance that helps see how Leah plays:

https://www.youtube.com/watch?v=ZL8spWct9sA

The intro is played on the bass, but I’ve transcribed a part that
can be played on guitar all the same. The only really strange part
in this song comes in the third chorus when everyone kinda just goes
nuts at the end of the chord progress, so use your best judgement
there. Good luck!


Intro: (clean)
(0:00-1:02)
  1 ^ ^ ^ 2 ^ ^ ^ 3 ^ ^ ^ 4 ^ ^ ^   1 ^ ^ ^ 2 ^ ^ ^ 3 ^ ^ ^ 4 ^ ^ ^ 
|---------0-----------------------|---------------------------------|
|-------------3---1-------------3-|-0-------0-------0---------------|
|---------------------------------|---------------2-----2---0-------|
|---------------------------------|-----------------------------2---|
|-3---------3-----0---------------|---------------------------------|
|-------------------------3-------|-0-------------------------------|

  1 ^ ^ ^ 2 ^ ^ ^ 3 ^ ^ ^ 4 ^ ^ ^   1  ^  ^  ^  2  ^  ^  ^  3  ^  ^  ^  4  ^  ^  ^ 
|---------0-----------------------|-----------------------------------(triplet)-----|
|-------------3---1-------------3-|-0-----------0----------------------\-----/------|
|---------------------------------|----------------------2--4-h5--4--2--2h4p2-0-----|
|---------------------------------|-------------------------------------------------|
|-3---------3-----0---------------|-------------------------------------------------|
|-------------------------3-------|-0-----------------------------------------------|

  1 ^ ^ ^ 2 ^ ^ ^ 3 ^ ^ ^ 4 ^ ^ ^   1 ^ ^ ^ 2 ^ ^ ^ 3 ^ ^ ^ 4 ^ ^ ^ 
|---------0-----------------------|---------------------------------|
|-------------3---1-------------3-|-0-------0-----------------------|
|---------------------------------|-------------------2-----2---0---|
|---------------------------------|---------------2h3-----3---------|
|-3---------3-----0---------------|---------------------------------|
|-------------------------3-------|-0-------------------------------|

  1 ^ ^ ^ 2 ^ ^ ^ 3 ^ ^ ^ 4 ^ ^ ^   1 ^ ^ ^ 2 ^ ^ ^ 3 ^ ^ ^ 4 ^ ^ ^ 
|---------0-----------------------|---------------------------------|
|-------------3---1-------------3-|-0-------0-------0---------------|
|---------------------------------|---------------2-----2---0-------|
|---------------------------------|-----------------------------2---|
|-3---------3-----0---------------|---------------------------------|
|-------------------------3-------|-0-------------------------------|

“Some me purchase Real Dolls…”
  1 ^ ^ ^ 2 ^ ^ ^ 3 ^ ^ ^ 4 ^ ^ ^   1 ^ ^ ^ 2 ^ ^ ^ 3 ^ ^ ^ 4 ^ ^ ^ 
|---------0-----------------------|---------------------------------|
|-------------3---1-------------3-|-0-------0-------0---------------|
|---------------------------------|---------------2-----2---0-------|
|---------------------------------|-----------------------------2---|
|-3---------3-----0---------------|---------------------------------|
|-------------------------3-------|-0-------------------------------|

“To fill the void…”
  1 ^ ^ ^ 2 ^ ^ ^ 3 ^ ^ ^ 4 ^ ^ ^   1  ^  ^  ^  2  ^  ^  ^  3  ^  ^  ^  4  ^  ^  ^ 
|---------0-----------------------|-----------------------------------(triplet)-----|
|-------------3---1-------------3-|-0-----------0----------------------\-----/------|
|---------------------------------|----------------------2--4-h5--4--2--2h4p2-0-----|
|---------------------------------|-------------------------------------------------|
|-3---------3-----0---------------|-------------------------------------------------|
|-------------------------3-------|-0-----------------------------------------------|

“But she don’t finish dinner, and her expression never changes…”
  1 ^ ^ ^ 2 ^ ^ ^ 3 ^ ^ ^ 4 ^ ^ ^   1 ^ ^ ^ 2 ^ ^ ^ 3 ^ ^ ^ 4 ^ ^ ^ 
|---------0-----------------------|---------------------------------|
|-------------3---1-------------3-|-0-------0-----------------------|
|---------------------------------|-------------------2-----2---0---|
|---------------------------------|---------------2h3-----3---------|
|-3---------3-----0---------------|---------------------------------|
|-------------------------3-------|-0-------------------------------|

“Don’t shake hands with the lonely kids, ‘cause I hear that sh*t’s contagious…”
  1 ^ ^ ^ 2 ^ ^ ^ 3 ^ ^ ^ 4 ^ ^ ^   1 ^ ^ ^ 2 ^ ^ ^ 3 ^ ^ ^ 4 ^ ^ ^ 
|---------0-----------------------|---------------------------------|
|-------------3---1-------------3-|-0-------0-------0---------------|
|---------------------------------|---------------2-----2---0-------|
|---------------------------------|-----------------------------2---|
|-3---------3-----0---------------|---------------------------------|
|-------------------------3-------|-0-------------------------------|


Chorus 1: (distortion)
(1:02-1:09)
“Yeah, yeah…”
  1 ^ ^ ^ 2 ^ ^ ^ 3 ^ ^ ^ 4 ^ ^ ^   1 ^ ^ ^ 2 ^ ^ ^ 3 ^ ^ ^ 4 ^ ^ ^ 
|-0-0-0-0---------0-0-0-0---------|-0-0-0-0-------------------1~~~~-|
|-1-1-1-1---------1-1-1-1---------|-0-0-0-0-------------------1~~~~-|
|-0-0-0-0---------2-2-2-2---------|-0-0-0-0-------------------2~~~~-|
|-2-2-2-2---------2-2-2-2---------|-2-2-2-2-------------------3~~~~-|
|-3-3-3-3---------0-0-0-0---------|-2-2-2-2-------------------3~~~~-|
|---------------------------------|-0-0-0-0-------------------1~~~~-|


Verse: (clean)
[The verse is basically just chords, with a little pick up and pull
off notes here and there. I’m just gonna show the chords, but here
is a basic example of the strumming pattern, check it out…]
  1  ^  ^  ^  2  ^  ^  ^  3  ^  ^  ^  4  ^  ^  ^    1  ^  ^  ^  2  ^  ^  ^  3  ^  ^  ^  4  ^  ^  ^  
|-0~~~~~~~~~----(0)-0-(0)-0--0--0--0--0-(0)-0-(0)-|-0~~~~~~~~~-(0)~~~~~--0--0~~~~~~~~~-(0)~~~~~--0--|
|-1~~~~~~~~~----(1)-1-(0)-1--1--1--1--1-(1)-1-(1)-|-0~~~~~~~~~-(0)~~~~~--0--0~~~~~~~~~-(0)~~~~~--0--|
|-0~~~--0--0--0--0--0-(0)-2--2--2--2--0-h2--2-p0--|-0~~~--0--0-(0)~~--0--0--0~~~--0--0-(0)~~--0--0--|
|-2~~~--2--2--0-h2--2-(0)-2--2--2--2--2-(2)-2-(2)-|-2~~~--2--2--0-h2--2--2--2~~~--2--2--0-h2--2--2--|
|-3~~~--3--3--3--3--3-(0)-0--0--0--0--0-(0)-0-(0)-|-2~~~--2--2--2--2--2--2--2~~~--2--2--2--2--2--2--|
|-------------------------------------------------|-0~~~--0--0--0--0--0--0--0~~~--0--0--0--0--0--0--|

Chords used:
        C             Am            Em          Fmaj7
e|------0------|------0------|------0------|------0------|
B|------1------|------1------|------0------|------1------|
G|------0------|------2------|------0------|------2------|
D|------2------|------2------|------2------|------3------|
A|------3------|------0------|------2------|------3------|
E|-------------|-------------|------0------|-------------|

Verse 1: (clean)
(1:09-1:55)

  C      Am      Em      Em

  C      Am      Em      Em

 C             Am                 Em             Fmaj7
“Animals in my bed, animals in my bed, animals in the streets”

 C               Am                Em                 Fmaj7
“I like cats, do you like cats, of course you do you sassy motherf*cker”

 C                      Am                    Em                  Fmaj7
“My stomach hurts, does your stomach hurt, do our stomachs hurt together”

 C               Am                  Em                Fmaj7
“I feel pain, do you feel pain, will this pain last forever”


Chorus 2: (distortion)
(1:55-2:25)
“Yeah, yeah…”
  1 ^ ^ ^ 2 ^ ^ ^ 3 ^ ^ ^ 4 ^ ^ ^   1 ^ ^ ^ 2 ^ ^ ^ 3 ^ ^ ^ 4 ^ ^ ^ 
|-0-0-0-0---------0-0-0-0---------|-0-0-0-0-------------------1~~~~-|\
|-1-1-1-1---------1-1-1-1---------|-0-0-0-0-------------------1~~~~-| \
|-0-0-0-0---------2-2-2-2---------|-0-0-0-0-------------------2~~~~-|  |
|-2-2-2-2---------2-2-2-2---------|-2-2-2-2-------------------3~~~~-|  |
|-3-3-3-3---------0-0-0-0---------|-2-2-2-2-------------------3~~~~-|  |
|---------------------------------|-0-0-0-0-------------------1~~~~-|  |
                                                                     (x2)
  1 ^ ^ ^ 2 ^ ^ ^ 3 ^ ^ ^ 4 ^ ^ ^   1 ^ ^ ^ 2 ^ ^ ^ 3 ^ ^ ^ 4 ^ ^ ^    |
|-0-0-0-0---------0-0-0-0---------|-0-0-0-0-------------------------|  |
|-1-1-1-1---------1-1-1-1---------|-0-0-0-0-------------------------|  |
|-0-0-0-0---------2-2-2-2---------|-0-0-0-0-------------------------|  |
|-2-2-2-2---------2-2-2-2---------|-2-2-2-2-------------------------|  |
|-3-3-3-3---------0-0-0-0---------|-2-2-2-2-------------------------| /
|---------------------------------|-0-0-0-0-------0-1-3-4-5-4-3-0~~-|/


Solo: (clean)
(2:25-2:56)
  1  ^  ^  ^  2  ^  ^  ^  3  ^  ^  ^  4  ^  ^  ^    1  ^  ^  ^  2  ^  ^  ^  3  ^  ^  ^  4  ^  ^  ^  
|-------------------------------------_triplet_---|-------------------------------------------------|
|------------------------------------/---------\--|-------------------------------------------------|
|-------------7vvvv~~~~~~~~~~~~~~~~~--5---7---5---|-4b^r-(4)~~~~~~~~~~~~~~~~~~~~~~~~~~~~~~~~~~~-----|
|-------------------------------------------------|-------------------------------------------------|
|-------------------------------------------------|-------------------------------------------------|
|-------------------------------------------------|-------------------------------------------------|

  1  ^  ^  ^  2  ^  ^  ^  3  ^  ^  ^  4  ^  ^  ^    1  ^  ^  ^  2  ^  ^  ^  3  ^  ^  ^  4  ^  ^  ^  
|-------------------------------------------------|----------------------------------------8-h10p8--|
|----------------------10-10----------10b^r(10)8--|----------------------------------8--10----------|
|-4//5--5//7--7//9--9-----------9-----------------|-9vvvv~~~~~~~~~~~~~~~~~~~~-----9-----------------|
|-------------------------------------------------|-------------------------------------------------|
|-------------------------------------------------|-------------------------------------------------|
|-------------------------------------------------|-------------------------------------------------|

  1  ^  ^  ^  2  ^  ^  ^  3  ^  ^  ^  4  ^  ^  ^    1  ^  ^  ^  2  ^  ^  ^  3  ^  ^  ^  4  ^  ^  ^  
|-10b^r(10)8--10-8--10b^r(10)8--10-8--10b--10--8--|-5//7~~~~~~--7~~~--7--7--7//8--8--8--8//10-10-10-|
|------------------------------------\---------/--|-------------------------------------------------|
|-------------------------------------\triplet/---|-------------------------------------------------|
|-------------------------------------------------|-------------------------------------------------|
|-------------------------------------------------|-------------------------------------------------|
|-------------------------------------------------|-------------------------------------------------|

  1  ^  ^  ^  2  ^  ^  ^  3  ^  ^  ^  4  ^  ^  ^    1  ^  ^  ^  2  ^  ^  ^  3  ^  ^  ^  4  ^  ^  ^  
|-10-12----15-17----15-17----15-17b^r(17)15-------|-------------------------------------------------|
|-------------------------------------------17-15-|-17vvvv~~~~~~~~~~~~~~~~--17\15-15-15-15\13-13-13-|
|-------------------------------------------------|-------------------------------------------------|
|-------------------------------------------------|-------------------------------------------------|
|-------------------------------------------------|-------------------------------------------------|
|-------------------------------------------------|-------------------------------------------------|

  1  ^  ^  ^  2  ^  ^  ^  3  ^  ^  ^  4  ^  ^  ^  
|-------------------------------------------------|
|-13vvvv~~~~~~~~~~~~~~~~~~~~~~~~~~~~~~~~~~~~~~~~--|
|-------------------------------------------------|
|-------------------------------------------------|
|-------------------------------------------------|
|-------------------------------------------------|


Verse 2: (clean)
(2:56-3:11)

C                  Am           Em                 Fmaj7
“I don’t think the flavor packet, makes it taste much different”

C             Am                       Em                Fmaj7
“You said you knew who you were, but I did not know what you meant”


Chorus 3: (distortion)
(3:11-3:29)
“Yeah, yeah…”
  1 ^ ^ ^ 2 ^ ^ ^ 3 ^ ^ ^ 4 ^ ^ ^   1 ^ ^ ^ 2 ^ ^ ^ 3 ^ ^ ^ 4 ^ ^ ^ 
|-0-0-0-0---------0-0-0-0---------|-0-0-0-0-------------------1~~~~-|
|-1-1-1-1---------1-1-1-1---------|-0-0-0-0-------------------1~~~~-|
|-0-0-0-0---------2-2-2-2---------|-0-0-0-0-------------------2~~~~-|
|-2-2-2-2---------2-2-2-2---------|-2-2-2-2-------------------3~~~~-|
|-3-3-3-3---------0-0-0-0---------|-2-2-2-2-------------------3~~~~-|
|---------------------------------|-0-0-0-0-------------------1~~~~-|

  1 ^ ^ ^ 2 ^ ^ ^ 3 ^ ^ ^ 4 ^ ^ ^   1 ^ ^ ^ 2 ^ ^ ^   3    ^    ^    ^    4    ^    ^    ^ 
|-0-0-0-0---------0-0-0-0---------|-0-0-0-0---------|-----------------(just kinda go nuts)----|
|-1-1-1-1---------1-1-1-1---------|-0-0-0-0---------|-----------------(here, up and down )----|
|-0-0-0-0---------2-2-2-2---------|-0-0-0-0---------|-----------------(  these notes as  )----|
|-2-2-2-2---------2-2-2-2---------|-2-2-2-2---------|-----------------(  fast as you can )----|
|-3-3-3-3---------0-0-0-0---------|-2-2-2-2---------|--------------------------|--------------|
|---------------------------------|-0-0-0-0-------0-|-1-3-4-5-4-3-0~~-<-------/---------------|


Verse 3:
(3:29-3:59)

  C      Am      Em      Em

  C      Am      Em      Em


C           Am              Em                 Fmaj7
“I’m a devil, you’re a devil, we’re all devils, Mary”

 C                  Am                  Em                 Fmaj7       
“You love Satan but you don’t know her, sometimes she gets scary”


Chorus 4: (distortion)
(3:59-4:13)
  1  ^  ^  ^  2  ^  ^  ^  3  ^  ^  ^  4  ^  ^  ^    1  ^  ^  ^  2  ^  ^  ^  3  ^  ^  ^  4  ^  ^  ^  
|-0--0--0--0--0--0--0-(0)-0--0--0--0--0--0--0-(0)-|-0--0--0--0--0--0--0-(0)-1--1--1--1--1--1--1-(0)-|
|-1--1--1--1--1--1--1-(0)-1--1--1--1--1--1--1-(0)-|-0--0--0--0--0--0--0-(0)-1--1--1--1--1--1--1-(0)-|
|-0--0--0--0--0--0--0-(0)-2--2--2--2--2--2--2-(0)-|-0--0--0--0--0--0--0-(0)-2--2--2--2--2--2--2-(0)-|
|-2--2--2--2--2--2--2-(0)-2--2--2--2--2--2--2-(0)-|-2--2--2--2--2--2--2-(2)-3--3--3--3--3--3--3-(0)-|
|-3--3--3--3--3--3--3-(0)-0--0--0--0--0--0--0-(0)-|-2--2--2--2--2--2--2-(2)-3--3--3--3--3--3--3-(0)-|
|-------------------------------------------------|-0--0--0--0--0--0--0-(0)-1--1--1--1--1--1--1-(0)-|

  1  ^  ^  ^  2  ^  ^  ^  3  ^  ^  ^  4  ^  ^  ^    1  ^  ^  ^  2  ^  ^  ^  3  ^  ^  ^  4  ^  ^  ^  
|-0--0--0--0--0--0--0-(0)-0--0--0--0--0--0--0-(0)-|-0--0--0--0--0--0--0-(0)-1--1--1--1--1--1--1-(0)-|
|-1--1--1--1--1--1--1-(0)-1--1--1--1--1--1--1-(0)-|-0--0--0--0--0--0--0-(0)-1--1--1--1--1--1--1-(0)-|
|-0--0--0--0--0--0--0-(0)-2--2--2--2--2--2--2-(0)-|-0--0--0--0--0--0--0-(0)-2--2--2--2--2--2--2-(0)-|
|-2--2--2--2--2--2--2-(0)-2--2--2--2--2--2--2-(0)-|-2--2--2--2--2--2--2-(2)-3--3--3--3--3--3--3-(0)-|
|-3--3--3--3--3--3--3-(0)-0--0--0--0--0--0--0-(0)-|-2--2--2--2--2--2--2-(2)-3--3--3--3--3--3--3-(0)-|
|-------------------------------------------------|-0--0--0--0--0--0--0-(0)-1--1--1--1--1--1--1-(0)-|


Outro: (distortion)
(4:13-5:25)
  1  ^  ^  ^  2  ^  ^  ^  3  ^  ^  ^  4  ^  ^  ^    1  ^  ^  ^  2  ^  ^  ^  3  ^  ^  ^  4  ^  ^  ^  
|-------------------------------------------------|-------------------------------------------------|
|-------------------------------------------------|-------------------------------------------------|
|-5---------//9-----7-----5---------//7-----------|-4b^r-(4)----------4-----4//5--5--5--5--5--5--5--|(x8)
|-x-----------x-----x-----x-----------x-----------|-x-----------------x-----x--x--x--x--x--x--x--x--|
|-3---------//7-----5-----3---------//5-----------|-2-----------------2-----2//3--3--3--3--3--3--3--|
|-------------------------------------------------|-------------------------------------------------|

  1  ^  ^  ^  2  ^  ^  ^  3  ^  ^  ^  4  ^  ^  ^    1  ^  ^  ^  2  ^  ^  ^  3  ^  ^  ^  4  ^  ^  ^  
|-------------------------------------------------|-0~~~~~~~~~~~~~~~~~~~~~~~~~~~~~~~~~--1~~~~~~~~~--|
|-------------------------------------------------|-0~~~~~~~~~~~~~~~~~~~~~~~~~~~~~~~~~--1~~~~~~~~~--|
|-5\/5/\5\/5/\5\/5/\5\/5/\5\/5/\5\/5/\5\/5/\5\/5/\|-0~~~~~~~~~~~~~~~~~~~~~~~~~~~~~~~~~--2~~~~~~~~~--|
|-x--x--x--x--x--x--x--x--x--x--x--x--x--x--x--x--|-2~~~~~~~~~~~~~~~~~~~~~~~~~~~~~~~~~--3~~~~~~~~~--|
|-3\/3/\3\/3/\3\/3/\3\/3/\3\/3/\3\/3/\3\/3/\3\/3/\|-2~~~~~~~~~~~~~~~~~~~~~~~~~~~~~~~~~--3~~~~~~~~~--|
|-------------------------------------------------|-0~~~~~~~~~~~~~~~~~~~~~~~~~~~~~~~~~--1~~~~~~~~~--|

  1  ^  ^  ^  2  ^  ^  ^  3  ^  ^  ^  4  ^  ^  ^  
|-0~~~~~~~~~~~~~~~~~~~~~~~~~~~~~~~~~~~~~~~~~~~~~--|
|-0~~~~~~~~~~~~~~~~~~~~~~~~~~~~~~~~~~~~~~~~~~~~~--|
|-0~~~~~~~~~~~~~~~~~~~~~~~~~~~~~~~~~~~~~~~~~~~~~--|
|-2~~~~~~~~~~~~~~~~~~~~~~~~~~~~~~~~~~~~~~~~~~~~~--|
|-2~~~~~~~~~~~~~~~~~~~~~~~~~~~~~~~~~~~~~~~~~~~~~--|
|-0~~~~~~~~~~~~~~~~~~~~~~~~~~~~~~~~~~~~~~~~~~~~~--|



************************************

| b  Bend
| r  Release bend
| x  Muted note
| /  Slide up
| \  Slide down
| v  Vibrato
| ~  Sustain
|(x) Implied note

************************************

Enjoy! Questions, comments, concerns, please let me know!
Suggest correction
Give kudos to tab author, rate the tab!
1 2 3 4 5
comments
print report bad tab
guest
You may want to rate the tab now too:
select rating
Wanna post a correction for this tab? Suggest correction