Oops, an error
Loading. Please wait.

Magnets Pt 1 Tab

73 views 1 this week
no commentswrite comment
1 2 3 4 5
3 more votes to show rating
add to favorites
launch autoscroll
font size
0
reset
how to read this tab
guitar tuner
Autoscroll
slow
fast
+/-
esc
set tempo
stop
Help us to improve Ultimate-Guitar.com Take our survey!
×
Author
Difficulty
intermediate
Slothrust
“Magnets Pt. 1”
Of Course You Do (2013)

Tuning - Standard (EADGBe)

So Magnets Pt 1 and Pt 2, awesome two-part song. Here’s a
link to a live performance that helps see how Leah plays:

https://www.youtube.com/watch?v=ilB6kMeTAPA

The intro/verse is played with harmonics on the twelfth 
fret which can be pretty tricky to play (along with the
finger-picking pattern) so an alternative is to just play
open strings instead of the harmonics. Good luck!

Intro: (clean)
(0:00-0:46)
  1  ^  2  ^  3  ^  4  ^    1  ^  2  ^  3  ^  4  ^    1  ^  2  ^  3  ^  4  ^    1  ^  2  ^  3  ^  4  ^ 
|-------------------------|-------------------------|-------------------------|-------------------------|
|+12+-----------+12+------|+12+-----------+12+------|+12+-----------+12+------|+12+-----------+12+------|
|---------+12+------------|---------+12+------------|---------+12+------------|---------+12+------------|
|------+12+--------+12+---|------+12+--------+12+---|------+12+--------+12+---|------+12+--------+12+---|
|-------------------------|-------------------------|-------------------------|-------------------------|
|-12----------12----------|-12----------12----------|-12----------12----------|-12----------12----------|

  1  ^  2  ^  3  ^  4  ^    1  ^  2  ^  3  ^  4  ^    1  ^  2  ^  3  ^  4  ^    1  ^  2  ^  3  ^  4  ^
|-------------------------|-------------------------|-------------------------|-------------------------|\
|+12+-----------+12+------|+12+-----------+12+------|+12+-----------+12+------|+12+--------+12+---------| \
|---------+12+------------|---------+12+------------|---------+12+------------|------+12+--------+12+---|  |
|------+12+--------+12+---|------+12+--------+12+---|------+12+--------+12+---|------+12+--------+12+---|  |
|-------------------------|-------------------------|-------------------------|-------------------------|  |
|-12----------12----------|-10----------10----------|-8-----------8-----------|-8-----------10----------|  |
                                                                                                         (x3)
  1  ^  2  ^  3  ^  4  ^    1  ^  2  ^  3  ^  4  ^    1  ^  2  ^  3  ^  4  ^    1  ^  2  ^  3  ^  4  ^     |
|-------------------------|-------------------------|-------------------------|-------------------------|  |
|+12+-----------+12+------|+12+---------0-----------|+12+-----------+12+------|+12+-----------+12+------|  |
|---------+12+------------|-------0-----------0-----|---------+12+------------|---------+12+------------|  |
|------+12+--------+12+---|-------0-----------0-----|------+12+--------+12+---|------+12+--------+12+---|  |
|-------------------------|-------------------------|-------------------------|-------------------------| /
|-12----------12----------|-10----------15----------|-8-----------8-----------|-8-----------8-----------|/

  1  ^  2  ^  3  ^  4  ^    1  ^  2  ^  3  ^  4  ^    1  ^  2  ^  3  ^  4  ^    1  ^  2  ^  3  ^  4  ^
|-------------------------|-------------------------|-------------------------|-------------------------|
|+12+-----------+12+------|+12+-----------+12+------|+12+-----------+12+------|+12+-----------+12+------|
|---------+12+------------|---------+12+------------|---------+12+------------|---------+12+------------|(x2)
|------+12+--------+12+---|------+12+--------+12+---|------+12+--------+12+---|------+12+--------+12+---|
|-------------------------|-------------------------|-------------------------|-------------------------|
|-12----------12----------|-10----------10----------|-8-----------8-----------|-8-----------8-----------|

  1  ^  2  ^  3  ^  4  ^    1  ^  2  ^  3  ^  4  ^    1  ^  2  ^  3  ^  4  ^    1  ^  2  ^  3  ^  4  ^
|-------------------------|-------------------------|-------------------------|-------------------------|
|+12+-----------+12+------|+12+---------0-----------|+12+~~~~~~~~~~~~~--------|+12+~~~~~~~~~~~~~--------|
|---------+12+------------|-------0-----------0-----|-------------------------|-------------------------|
|------+12+--------+12+---|-------0-----------0-----|-------------------------|-------------------------|
|-------------------------|-------------------------|-------------------------|-------------------------|
|-12----------12----------|-10----------15----------|-8~~~~~~~~~~~~~~~--------|-8~~~~~~~~~~~~~~~--------|


Verse: (distortion)
(0:46-1:06)
  1  ^  2  ^  3  ^  4  ^    1  ^  2  ^  3  ^  4  ^    1  ^  2  ^  3  ^  4  ^    1  ^  2  ^  3  ^  4  ^
|-------------------------|-------------------------|-------------------------|-------------------------|\
|-------------------------|-------------------------|-------------------------|-------------------------| \
|-12-12-12~~~~~--12-12-12-|-11-11-11~~~~~--11-11-11-|-9--9--9~~~--9--9--9~~~--|-9--9--9--9--11-11-11-11-|  |
|-x--x--x--------x--x--x--|-x--x--x--------x--x--x--|-x--x--x-----x--x--x-----|-x--x--x--x--x--x--x--x--|  |
|-14-14-14~~~~~--14-14-14-|-12-12-12~~~~~--12-12-12-|-10-10-10~~--10-10-10~~--|-10-10-10-10-12-12-12-12-|  |
|-12-12-12~~~~~--12-12-12-|-10-10-10~~~~~--10-10-10-|-8--8--8~~~--8--8--8~~~--|-8--8--8--8--10-10-10-10-|  |
                                                                                                         (x2)
  1  ^  2  ^  3  ^  4  ^    1  ^  2  ^  3  ^  4  ^    1  ^  2  ^  3  ^  4  ^    1  ^  2  ^  3  ^  4  ^     |
|-------------------------|-------------------------|-------------------------|-------------------------|  |
|-------------------------|-------------------------|-------------------------|-------------------------|  |
|-12-12-12~~~~~--12-12-12-|-11----11///-16----16\\\-|-9--9--9~~~--9--9--9~~~--|-9--9--9--9--9--9--9--9--|  |
|-x--x--x--------x--x--x--|-x-----x-----x-----x-----|-x--x--x-----x--x--x-----|-x--x--x--x--x--x--x--x--|  |
|-14-14-14~~~~~--14-14-14-|-12----12///-17----17\\\-|-10-10-10~~--10-10-10~~--|-10-10-10-10-10-10-10-10-| /
|-12-12-12~~~~~--12-12-12-|-10----10///-15----15\\\-|-8--8--8~~~--8--8--8~~~--|-8--8--8--8--8--8--8--8--|/

"Don't be scared..." (clean)
(1:06-1:25)
  1  ^  2  ^  3  ^  4  ^    1  ^  2  ^  3  ^  4  ^    1  ^  2  ^  3  ^  4  ^    1  ^  2  ^  3  ^  4  ^
|-------------------------|-------------------------|-------------------------|-------------------------|\
|(0)---+12+-----+12+12+12+|(0)---+12+-----+12+12+12+|(0)---+12+-----+12+12+12+|+12+12+12+12+12+12+12+12+| \
|(0)---+12+-----+12+12+12+|(0)---+12+-----+12+12+12+|(0)---+12+-----+12+12+12+|+12+12+12+12+12+12+12+12+|  |
|(0)---+12+-----+12+12+12+|(0)---+12+-----+12+12+12+|(0)---+12+-----+12+12+12+|+12+12+12+12+12+12+12+12+|  |
|-------------------------|-------------------------|-------------------------|-------------------------|  |
|-12----12-------12-12-12-|-10----10-------10-10-10-|-8-----8--------8--8--8--|-8--8--8--8--10-10-10-10-|  |
                                                                                                         (x2)
  1  ^  2  ^  3  ^  4  ^    1  ^  2  ^  3  ^  4  ^    1  ^  2  ^  3  ^  4  ^    1  ^  2  ^  3  ^  4  ^     |
|-------------------------|-------------------------|-------------------------|-------------------------|  |
|(0)---+12+-----+12+12+12+|(0)---+12+--(0)----0-----|(0)---+12+-----+12+12+12+|+12+12+12+12+12+12+12+12+|  |
|(0)---+12+-----+12+12+12+|(0)---+12+--(0)----0-----|(0)---+12+-----+12+12+12+|+12+12+12+12+12+12+12+12+|  |
|(0)---+12+-----+12+12+12+|(0)---+12+--(0)----0-----|(0)---+12+-----+12+12+12+|+12+12+12+12+12+12+12+12+|  |
|-------------------------|-------------------------|-------------------------|-------------------------| /
|-12----12-------12-12-12-|-10----10----15----15----|-8-----8--------8--8--8--|-8--8--8--8--8--8--8--8--|/


Chorus: (distortion)
(1:25-1:44)
  1  ^  2  ^  3  ^  4  ^    1  ^  2  ^  3  ^  4  ^    1  ^  2  ^  3  ^  4  ^    1  ^  2  ^  3  ^  4  ^ 
|-------------------------|-------------------------|-------------------------|-------------------------|
|-------------------------|-------------------------|-------------------------|-------------------------|
|-------------------------|-------------------------|-------------------------|-------------------------|
|-7-----7--7--5-----5--5--|-7-----7--7--5-----5--5--|-7-----7--7--5-----5--5--|-10-10-10-10-10-10-10-10-|
|-7-----7--7--5-----5--5--|-7-----7--7--5-----5--5--|-7-----7--7--5-----5--5--|-10-10-10-10-10-10-10-10-|
|-5-----5--5--3-----3--3--|-5-----5--5--3-----3--3--|-5-----5--5--3-----3--3--|-8--8--8--8--8--8--8--8--|

  1  ^  2  ^  3  ^  4  ^    1  ^  2  ^  3  ^  4  ^    1  ^  2  ^  3  ^  4  ^    1  ^  2  ^  3  ^  4  ^ 
|-------------------------|-------------------------|-------------------------|-------------------------|
|-------------------------|-------------------------|-------------------------|-------------------------|
|-------------------------|-------------------------|-------------------------|-------------------------|
|-7-----7--7--5-----5--5--|-7-----7--7--5-----5--5--|-10-10-10-10-10-10-10-10-|-10-10-10-10-10-10-10-10-|
|-7-----7--7--5-----5--5--|-7-----7--7--5-----5--5--|-10-10-10-10-10-10-10-10-|-10-10-10-10-10-10-10-10-|
|-5-----5--5--3-----3--3--|-5-----5--5--3-----3--3--|-8--8--8--8--8--8--8--8--|-8--8--8--8--8--8--8--8--|

  1  ^  2  ^  3  ^  4  ^    1  ^  2  ^  3  ^  4  ^    1  ^  2  ^  3  ^  4  ^    1  ^  2  ^  3  ^  4  ^ 
|-------------------------|-------------------------|-------------------------|-------------------------|
|-------------------------|-------------------------|-------------------------|-------------------------|
|-6-----6--6--4-----4--4--|-6-----6--6--4-----4--4--|-6-----6--6--4-----4--4--|-9--9--9--9--9--9--9--9--|
|-7-----7--7--5-----5--5--|-7-----7--7--5-----5--5--|-7-----7--7--5-----5--5--|-10-10-10-10-10-10-10-10-|
|-7-----7--7--5-----5--5--|-7-----7--7--5-----5--5--|-7-----7--7--5-----5--5--|-10-10-10-10-10-10-10-10-|
|-5-----5--5--3-----3--3--|-5-----5--5--3-----3--3--|-5-----5--5--3-----3--3--|-8--8--8--8--8--8--8--8--|

  1  ^  2  ^  3  ^  4  ^    1  ^  2  ^  3  ^  4  ^    1  ^  2  ^  3  ^  4  ^    1  ^  2  ^  3  ^  4  ^ 
|-------------------------|-------------------------|-------------------------|-------------------------|
|-------------------------|-------------------------|-------------------------|-------------------------|
|-6-----6--6--4-----4--4--|-6-----6--6--4-----4--4--|-9--9--9--9--9--9--9--9--|-9--9--9--9--9--9--9--9--|
|-7-----7--7--5-----5--5--|-7-----7--7--5-----5--5--|-10-10-10-10-10-10-10-10-|-10-10-10-10-10-10-10-10-|
|-7-----7--7--5-----5--5--|-7-----7--7--5-----5--5--|-10-10-10-10-10-10-10-10-|-10-10-10-10-10-10-10-10-|
|-5-----5--5--3-----3--3--|-5-----5--5--3-----3--3--|-8--8--8--8--8--8--8--8--|-8--8--8--8--8--8--8--8--|


"Don't be scared..." (clean)
(1:44-1:58)
  1  ^  2  ^  3  ^  4  ^    1  ^  2  ^  3  ^  4  ^    1  ^  2  ^  3  ^  4  ^    1  ^  2  ^  3  ^  4  ^
|-------------------------|-------------------------|-------------------------|-------------------------|
|(0)---+12+-----+12+12+12+|(0)---+12+-----+12+12+12+|(0)---+12+-----+12+12+12+|+12+12+12+12+12+12+12+12+|
|(0)---+12+-----+12+12+12+|(0)---+12+-----+12+12+12+|(0)---+12+-----+12+12+12+|+12+12+12+12+12+12+12+12+|
|(0)---+12+-----+12+12+12+|(0)---+12+-----+12+12+12+|(0)---+12+-----+12+12+12+|+12+12+12+12+12+12+12+12+|
|-------------------------|-------------------------|-------------------------|-------------------------|
|-12----12-------12-12-12-|-10----10-------10-10-10-|-8-----8--------8--8--8--|-8--8--8--8--10-10-10-10-|
                                                                                                         
  1  ^  2  ^  3  ^  4  ^    1  ^  2  ^  3  ^  4  ^    1  ^  2  ^  3  ^  4  ^    1  ^  2  ^  3  ^  4  ^
|-------------------------|-------------------------|-------------------------|-------------------------|
|(0)---+12+-----+12+12+12+|(0)---+12+--(0)----0-----|(0)---+12+-----+12+12+12+|+12+12+12+12+12+12+12+12+|
|(0)---+12+-----+12+12+12+|(0)---+12+--(0)----0-----|(0)---+12+-----+12+12+12+|+12+12+12+12+12+12+12+12+|
|(0)---+12+-----+12+12+12+|(0)---+12+--(0)----0-----|(0)---+12+-----+12+12+12+|+12+12+12+12+12+12+12+12+|
|-------------------------|-------------------------|-------------------------|-------------------------|
|-12----12-------12-12-12-|-10----10----15----15----|-8-----8--------8--8--8--|-8--8--8--8--8--8--8--8--|

  1  ^  2  ^  3  ^  4  ^    1  ^  2  ^  3  ^  4  ^    1  ^  2  ^  3  ^  4  ^    1  ^  2  ^  3  ^  4  ^
|-------------------------|-------------------------|-------------------------|-------------------------|
|(0)---+12+-----+12+12+12+|(0)---+12+-----+12+12+12+|(0)---+12+-----+12+12+12+|+12+12+12+12+12+12+12+12+|
|(0)---+12+-----+12+12+12+|(0)---+12+-----+12+12+12+|(0)---+12+-----+12+12+12+|+12+12+12+12+12+12+12+12+|
|(0)---+12+-----+12+12+12+|(0)---+12+-----+12+12+12+|(0)---+12+-----+12+12+12+|+12+12+12+12+12+12+12+12+|
|-------------------------|-------------------------|-------------------------|-------------------------|
|-12----12-------12-12-12-|-10----10-------10-10-10-|-8-----8--------8--8--8--|-8--8--8--8--8--8--8--8--|

Break: (distorted)
(1:58-2:16)
  1  ^  2  ^  3  ^  4  ^    1  ^  2  ^  3  ^  4  ^    1  ^  2  ^  3  ^  4  ^    1  ^  2  ^  3  ^  4  ^
|-------------------------|-------------------------|-------------------------|-------------------------|\
|-------------------------|-------------------------|-------------------------|-------------------------| \
|-12----12----x--x--x--x--|-11----11----x--x--x--x--|-9--9--9--9--9--9--9--9--|-9--9--9--9--11-11-11-11-|  |
|-x-----x-----x--x--x--x--|-x-----x-----x--x--x--x--|-x--x--x--x--x--x--x--x--|-x--x--x--x--x--x--x--x--|  |
|-14----14----x--x--x--x--|-12----12----x--x--x--x--|-10-10-10-10-10-10-10-10-|-10-10-10-10-12-12-12-12-|  |
|-12----12----x--x--x--x--|-10----10----x--x--x--x--|-8--8--8--8--8--8--8--8--|-8--8--8--8--10-10-10-10-|  |
                                                                                                         (x2)
  1  ^  2  ^  3  ^  4  ^    1  ^  2  ^  3  ^  4  ^    1  ^  2  ^  3  ^  4  ^    1  ^  2  ^  3  ^  4  ^     |
|-------------------------|-------------------------|-------------------------|-------------------------|  |
|-------------------------|-------------------------|-------------------------|-------------------------|  |
|-12----12----x--x--x--x--|-11----x--16----x--9~~~~-|----9--9--9--9--9--9--9--|-9--9--9--9--9--9--9--9--|  |
|-x-----x-----x--x--x--x--|-x-----x--x-----x--x-----|----x--x--x--x--x--x--x--|-x--x--x--x--x--x--x--x--|  |
|-14----14----x--x--x--x--|-12----x--17----x--10~~~-|----10-10-10-10-10-10-10-|-10-10-10-10-10-10-10-10-| /
|-12----12----x--x--x--x--|-10----x--15----x--8~~~~-|----8--8--8--8--8--8--8--|-8--8--8--8--8--8--8--8--|/


Chorus 2: (distortion)
(2:16-2:35)
  1  ^  2  ^  3  ^  4  ^    1  ^  2  ^  3  ^  4  ^    1  ^  2  ^  3  ^  4  ^    1  ^  2  ^  3  ^  4  ^ 
|-------------------------|-------------------------|-------------------------|-------------------------|
|-------------------------|-------------------------|-------------------------|-------------------------|
|-------------------------|-------------------------|-------------------------|-------------------------|
|-7-----7--7--5-----5--5--|-7-----7--7--5-----5--5--|-7-----7--7--5-----5--5--|-10-10-10-10-10-10-10-10-|
|-7-----7--7--5-----5--5--|-7-----7--7--5-----5--5--|-7-----7--7--5-----5--5--|-10-10-10-10-10-10-10-10-|
|-5-----5--5--3-----3--3--|-5-----5--5--3-----3--3--|-5-----5--5--3-----3--3--|-8--8--8--8--8--8--8--8--|

  1  ^  2  ^  3  ^  4  ^    1  ^  2  ^  3  ^  4  ^    1  ^  2  ^  3  ^  4  ^    1  ^  2  ^  3  ^  4  ^ 
|-------------------------|-------------------------|-------------------------|-------------------------|
|-------------------------|-------------------------|-------------------------|-------------------------|
|-------------------------|-------------------------|-------------------------|-------------------------|
|-7-----7--7--5-----5--5--|-7-----7--7--5-----5--5--|-10-10-10-10-10-10-10-10-|-10-10-10-10-10-10-10-10-|
|-7-----7--7--5-----5--5--|-7-----7--7--5-----5--5--|-10-10-10-10-10-10-10-10-|-10-10-10-10-10-10-10-10-|
|-5-----5--5--3-----3--3--|-5-----5--5--3-----3--3--|-8--8--8--8--8--8--8--8--|-8--8--8--8--8--8--8--8--|

  1  ^  2  ^  3  ^  4  ^    1  ^  2  ^  3  ^  4  ^    1  ^  2  ^  3  ^  4  ^    1  ^  2  ^  3  ^  4  ^ 
|-------------------------|-------------------------|-------------------------|-------------------------|
|-------------------------|-------------------------|-------------------------|-------------------------|
|-6-----6--6--4-----4--4--|-6-----6--6--4-----4--4--|-6-----6--6--4-----4--4--|-9--9--9--9--9--9--9--9--|
|-7-----7--7--5-----5--5--|-7-----7--7--5-----5--5--|-7-----7--7--5-----5--5--|-10-10-10-10-10-10-10-10-|
|-7-----7--7--5-----5--5--|-7-----7--7--5-----5--5--|-7-----7--7--5-----5--5--|-10-10-10-10-10-10-10-10-|
|-5-----5--5--3-----3--3--|-5-----5--5--3-----3--3--|-5-----5--5--3-----3--3--|-8--8--8--8--8--8--8--8--|

  1  ^  2  ^  3  ^  4  ^    1  ^  2  ^  3  ^  4  ^    1  ^  2  ^  3  ^  4  ^    1  ^  2  ^  3  ^  4  ^ 
|-------------------------|-------------------------|-------------------------|-_triplet_---_triplet_---|
|-------------------------|-------------------------|-------------------------|/---------\-/---------\--|
|-6-----6--6--4-----4--4--|-6-----6--6--4-----4--4--|-9--9--9--9--9--9--9--9--|-9---9---9---9---9---9---|
|-7-----7--7--5-----5--5--|-7-----7--7--5-----5--5--|-10-10-10-10-10-10-10-10-|-10--10--10--10--10--10--|
|-7-----7--7--5-----5--5--|-7-----7--7--5-----5--5--|-10-10-10-10-10-10-10-10-|-10--10--10--10--10--10--|
|-5-----5--5--3-----3--3--|-5-----5--5--3-----3--3--|-8--8--8--8--8--8--8--8--|-8---8---8---8---8---8---|


Outro: (distorted, tempo slows way down here)
(2:35-3:01)
  1  ^  ^  2  ^  ^  3  ^  ^  4  ^  ^    1  ^  ^  2  ^  ^  3  ^  ^  4  ^  ^  
|-------------------------------------|-------------------------------------|
|-------------------------------------|-------------------------------------|
|-6~~~~~~~~~~~~~~~--6~~~~~~--9~~~~~~--|-2~~~~~~~~~~~~~~~--2~~~~~~--7~~~~~~--|(x4)
|-7~~~~~~~~~~~~~~~--7~~~~~~--10~~~~~--|-3~~~~~~~~~~~~~~~--3~~~~~~--8~~~~~~--|
|-7~~~~~~~~~~~~~~~--7~~~~~~--10~~~~~--|-3~~~~~~~~~~~~~~~--3~~~~~~--8~~~~~~--|
|-5~~~~~~~~~~~~~~~--5~~~~~~--8~~~~~~--|-1~~~~~~~~~~~~~~~--1~~~~~~--6~~~~~~--|

(3:01-3:21)
(start slowing down gradually on the third time through)
  1  ^  ^  2  ^  ^  3  ^  ^  4  ^  ^    1  ^  ^  2  ^  ^  3  ^  ^  4  ^  ^  
|-------------------------------------|-------------------------------------|
|-------------------------------------|-------------------------------------|
|-6--6--6--6--6--6--6--6--6--9--9--9--|-2--2--2--2--2--2--2--2--2--7--7--7--|(x3)
|-7--7--7--7--7--7--7--7--7--10-10-10-|-3--3--3--3--3--3--3--3--3--8--8--8--|
|-7--7--7--7--7--7--7--7--7--10-10-10-|-3--3--3--3--3--3--3--3--3--8--8--8--|
|-5--5--5--5--5--5--5--5--5--8--8--8--|-1--1--1--1--1--1--1--1--1--6--6--6--|

(3:21-3:40)
(last time through slows down as much as you could possibly imagine)
  1  ^  ^  2  ^  ^  3  ^  ^  4  ^  ^    1  ^  ^  2  ^  ^  3  ^  ^  4  ^  ^  
|-------------------------------------|-------------------------------------|
|-------------------------------------|-------------------------------------|
|-6--6--6--6--6--6--6--6--6--9--9--9--|-2--2--2--2--2--2--2--2--2--7~~~~~~--|
|-7--7--7--7--7--7--7--7--7--10-10-10-|-3--3--3--3--3--3--3--3--3--8~~~~~~--|
|-7--7--7--7--7--7--7--7--7--10-10-10-|-3--3--3--3--3--3--3--3--3--8~~~~~~--|
|-5--5--5--5--5--5--5--5--5--8--8--8--|-1--1--1--1--1--1--1--1--1--6~~~~~~--|


************************************

| b  Bend
| x  Muted note
| /  Slide up
| \  Slide down
| ~  Hold note
| +  Harmonics
|(x) Implied note

************************************

Enjoy! Questions, comments, concerns, please let me know!
Suggest correction
Give kudos to tab author, rate the tab!
1 2 3 4 5
comments
print report bad tab
guest
You may want to rate the tab now too:
select rating
Wanna post a correction for this tab? Suggest correction