Oops, an error
Loading. Please wait.

Magnets Pt 2 Tab

163 views 9 this week
no commentswrite comment
1 2 3 4 5
x 3
add to favorites
launch autoscroll
font size
0
reset
how to read this tab
guitar tuner
Autoscroll
slow
fast
+/-
esc
set tempo
stop
Help us to improve Ultimate-Guitar.com Take our survey!
×
Author
Difficulty
intermediate
Slothrust
“Magnets Pt. 2”
Of Course You Do (2013)

Tuning - Standard (EADGBe)

So Magnets Pt 1 and Pt 2, awesome two-part song. Here’s a
link to a live performance that helps see how Leah plays:

https://www.youtube.com/watch?v=ilB6kMeTAPA

Finger-picking parts in the beginning and end, not sure if
I have them 100% right, but this should steer you on the right
path. Also, the solo-esque part at the very end is a bit hard
to tell exactly what is being played, but I’ve tabbed up what
I think sounds close. Good luck!

Part 1: (clean)
(0:00-1:12)
  1 ^ 2 ^ 3 ^ 4 ^   1 ^ 2 ^ 3 ^ 4 ^   1 ^ 2 ^ 3 ^ 4 ^   1 ^ 2 ^ 3 ^ 4 ^
|-----------------|-----------------|-----------3-----|-----------3-----|
|-0---------0-----|-1---------3-----|-0---------------|-0---------------|
|-------0---------|-------0---------|-------0---------|-------0---------|
|-----2-------2---|-----2-------2---|-----0-------0---|-----0-------0---|
|-----------------|-3-------3-------|-----------------|-----------------|
|-0-------0-------|-----------------|-3-------3-------|-3-------3-------|

  1 ^ 2 ^ 3 ^ 4 ^   1 ^ 2 ^ 3 ^ 4 ^   1 ^ 2 ^ 3 ^ 4 ^   1 ^ 2 ^ 3 ^ 4 ^
|-----------------|-----------------|-----------------|-----------0-----|
|-0---------0-----|-1---------3-----|-0---------3-----|-3---------------|
|-------0---------|-------0---------|-------0---------|-------0---------|
|-----2-------2---|-----2-------2---|-----0-------0---|-----0-------0---|
|-----------------|-3-------3-------|-----------------|-----------------|
|-0-------0-------|-----------------|-3-------3-------|-3-------3-------|

“You cannot protect…”
  1 ^ 2 ^ 3 ^ 4 ^   1 ^ 2 ^ 3 ^ 4 ^   1 ^ 2 ^ 3 ^ 4 ^   1 ^ 2 ^ 3 ^ 4 ^
|-----------------|-----------------|-----------3-----|-----------------|
|-0---------0-----|-1---------3-----|-0---------------|-0---------0-----|
|-------0---------|-------0---------|-------0---------|-------0---------|
|-----2-------2---|-----2-------2---|-----0-------0---|-----0-------0---|
|-----------------|-3-------3-------|-----------------|-----------------|
|-0-------0-------|-----------------|-3-------3-------|-3-------3-------|

  1 ^ 2 ^ 3 ^ 4 ^   1 ^ 2 ^ 3 ^ 4 ^   1 ^ 2 ^ 3 ^ 4 ^   1 ^ 2 ^ 3 ^ 4 ^
|-----------------|-----------------|-----------------|-----------0-----|
|-0---------0-----|-1---------3-----|-0---------3-----|-3---------------|
|-------0---------|-------0---------|-------0---------|-------0---------|
|-----2-------2---|-----2-------2---|-----0-------0---|-----0-------0---|
|-----------------|-3-------3-------|-----------------|-----------------|
|-0-------0-------|-----------------|-3-------3-------|-3-------3-------|

“I lit a candle for you…”
  1 ^ 2 ^ 3 ^ 4 ^   1 ^ 2 ^ 3 ^ 4 ^   1 ^ 2 ^ 3 ^ 4 ^   1 ^ 2 ^ 3 ^ 4 ^
|-----------------|-----------------|-----------3-----|-----------------|
|-0---------0-----|-1---------3-----|-0---------------|-0---------------|
|-------0---------|-------0---------|-------0---------|-------0-----0---|
|-----2-------2---|-----2-------2---|-----0-------0---|-----0-------0---|
|-----------------|-3-------3-------|-----------------|-----------------|
|-0-------0-------|-----------------|-3-------3-------|-3-------2-------|

  1 ^ 2 ^ 3 ^ 4 ^   1 ^ 2 ^ 3 ^ 4 ^   1 ^ 2 ^ 3 ^ 4 ^   1 ^ 2 ^ 3 ^ 4 ^
|-----------------|-----------------|-----------------|-----------0-----|
|-0---------0-----|-1---------3-----|-0---------3-----|-3---------------|
|-------0---------|-------0---------|-------0---------|-------0---------|
|-----2-------2---|-----2-------2---|-----0-------0---|-----0-------0---|
|-----------------|-3-------3-------|-----------------|-----------------|
|-0-------0-------|-----------------|-3-------3-------|-3-------3-------|

“He comes to me in my dreams…”
  1 ^ 2 ^ 3 ^ 4 ^   1 ^ 2 ^ 3 ^ 4 ^   1 ^ 2 ^ 3 ^ 4 ^   1 ^ 2 ^ 3 ^ 4 ^
|-----------------|-----------------|-----------3-----|-----------3-----|
|-0---------0-----|-1---------3-----|-0---------------|-0---------------|
|-------0---------|-------0---------|-------0---------|-------0---------|
|-----2-------2---|-----2-------2---|-----0-------0---|-----0-------0---|
|-----------------|-3-------3-------|-----------------|-----------------|
|-0-------0-------|-----------------|-3-------3-------|-3-------3-------|

  1 ^ 2 ^ 3 ^ 4 ^   1 ^ 2 ^ 3 ^ 4 ^   1 ^ 2 ^ 3 ^ 4 ^   1 ^ 2 ^ 3 ^ 4 ^
|-----------------|-----------------|-----------------|-----------0-----|
|-0---------0-----|-1---------3-----|-0---------3-----|-3---------------|
|-------0---------|-------0---------|-------0---------|-------0---------|
|-----2-------2---|-----2-------2---|-----0-------0---|-----0-------0---|
|-----------------|-3-------3-------|-----------------|-----------------|
|-0-------0-------|-----------------|-3-------3-------|-3-------3-------|

“That he’s just been hiding out…”
  1 ^ 2 ^ 3 ^ 4 ^   1 ^ 2 ^ 3 ^ 4 ^   1 ^ 2 ^ 3 ^ 4 ^   1 ^ 2 ^ 3 ^ 4 ^
|-----------------|-----------------|-----------3-----|-----------------|
|-0---------0-----|-1---------3-----|-0---------------|-0---------------|
|-------0---------|-------0---------|-------0---------|-------0-----0---|
|-----2-------2---|-----2-------2---|-----0-------0---|-----0-------0---|
|-----------------|-3-------3-------|-----------------|-----------------|
|-0-------0-------|-----------------|-3-------3-------|-3-------2-------|

  1 ^ 2 ^ 3 ^ 4 ^   1 ^ 2 ^ 3 ^ 4 ^   1 ^ 2 ^ 3 ^ 4 ^   1 ^ 2 ^ 3 ^ 4 ^
|-----------------|-----------------|-----------------|-----------0-----|
|-0---------0-----|-1---------3-----|-0---------3-----|-3---------------|
|-------0---------|-------0---------|-------0---------|-------0---------|
|-----2-------2---|-----2-------2---|-----0-------0---|-----0-------0---|
|-----------------|-3-------3-------|-----------------|-----------------|
|-0-------0-------|-----------------|-3-------3-------|-3-------3-------|

“Aww yeah…”
  1 ^ 2 ^ 3 ^ 4 ^   1 ^ 2 ^ 3 ^ 4 ^   1 ^ 2 ^ 3 ^ 4 ^   1 ^ 2 ^ 3 ^ 4 ^
|-----------------|-----------------|-----------3-----|-----------------|
|-0---------0-----|-1---------3-----|-0---------------|-0---------------|
|-------0---------|-------0---------|-------0---------|-------0-----0---|
|-----2-------2---|-----2-------2---|-----0-------0---|-----0-------0---|
|-----------------|-3-------3-------|-----------------|-----------------|
|-0-------0-------|-----------------|-3-------3-------|-3-------2-------|

  1 ^ 2 ^ 3 ^ 4 ^   1 ^ 2 ^ 3 ^ 4 ^   1 ^ 2 ^ 3 ^ 4 ^   1 ^ 2 ^ 3 ^ 4 ^
|-----------------|-----------------|-----------------|-----------0-----|
|-0---------0-----|-1---------3-----|-0---------3-----|-3---------------|
|-------0---------|-------0---------|-------0---------|-------0---------|
|-----2-------2---|-----2-------2---|-----0-------0---|-----0-------0---|
|-----------------|-3-------3-------|-----------------|-----------------|
|-0-------0-------|-----------------|-3-------3-------|-3-------3-------|

“And if you took it back…”
  1 ^ 2 ^ 3 ^ 4 ^   1 ^ 2 ^ 3 ^ 4 ^   1 ^ 2 ^ 3 ^ 4 ^   1 ^ 2 ^ 3 ^ 4 ^
|-----------------|-----------------|-----------3-----|-----------------|
|-0---------0-----|-1---------3-----|-0---------------|-0---------0-----|
|-------0---------|-------0---------|-------0---------|-------0---------|
|-----2-------2---|-----2-------2---|-----0-------0---|-----0-------0---|
|-----------------|-3-------3-------|-----------------|-----------------|
|-0-------0-------|-----------------|-3-------3-------|-3-------3-------|

  1 ^ 2 ^ 3 ^ 4 ^   1 ^ 2 ^ 3 ^ 4 ^   1 ^ 2 ^ 3 ^ 4 ^   1 ^ 2 ^ 3 ^ 4 ^
|-----------------|-----------------|-----------3-----|-----------------|
|-0---------0-----|-1---------3-----|-0---------------|-0---------0-----|
|-------0---------|-------0---------|-------0---------|-------0---------|
|-----2-------2---|-----2-------2---|-----0-------0---|-----0-------0---|
|-----------------|-3-------3-------|-----------------|-----------------|
|-0-------0-------|-----------------|-3-------3-------|-3-------3-------|

  1 ^ 2 ^ 3 ^ 4 ^   1 ^ 2 ^ 3 ^ 4 ^   1 ^ 2 ^ 3 ^ 4 ^   1 ^ 2 ^ 3 ^ 4 ^
|-----------------|-----------3-----|-----------------|-----------------|
|-0---------0-----|-1---------------|-0~~~~~~~~~~~~~~-|-----------------|
|-------0---------|-------0---------|-0~~~~~~~~~~~~~~-|-----------------|
|-----2-------2---|-----2-------2---|-0~~~~~~~~~~~~~~-|-----------------|
|-----------------|-3-------3-------|-2~~~~~~~~~~~~~~-|-----------------|
|-0-------0-------|-----------------|-3~~~~~~~~~~~~~~-|-----------------|


Part 2: (distortion)
(1:12-1:33)
  1 ^ 2 ^ 3 ^ 4 ^   1 ^ 2 ^ 3 ^ 4 ^   1 ^ 2 ^ 3 ^ 4 ^   1 ^ 2 ^ 3 ^ 4 ^
|-0~~~~~~~~~~~~~~-|-3~~~~~~~~~~~~~~-|-3~~~~~~~~~~~~~~-|-----------------|
|-0~~~~~~~~~~~~~~-|-5~~~~~~~~~~~~~~-|-3~~~~~~~~~~~~~~-|-----------------|
|-0~~~~~~~~~~~~~~-|-5~~~~~~~~~~~~~~-|-4~~~~~~~~~~~~~~-|-4~~~~~~-4~~~~~~-|
|-2~~~~~~~~~~~~~~-|-5~~~~~~~~~~~~~~-|-5~~~~~~~~~~~~~~-|-5~~~~~~-5~~~~~~-|
|-2~~~~~~~~~~~~~~-|-3~~~~~~~~~~~~~~-|-5~~~~~~~~~~~~~~-|-5~~~~~~-5~~~~~~-|
|-0~~~~~~~~~~~~~~-|-----------------|-3~~~~~~~~~~~~~~-|-3~~~~~~-2~~~~~~-|

  1 ^ 2 ^ 3 ^ 4 ^   1 ^ 2 ^ 3 ^ 4 ^   1 ^ 2 ^ 3 ^ 4 ^   1 ^ 2 ^ 3 ^ 4 ^
|-0~~~~~~~~~~~~~~-|-3~~~~~~~~~~~~~~-|-3~~~~~~~~~~~~~~~~~~~~~~~~~~~~~~~~-|
|-0~~~~~~~~~~~~~~-|-5~~~~~~~~~~~~~~-|-3~~~~~~~~~~~~~~~~~~~~~~~~~~~~~~~~-|
|-0~~~~~~~~~~~~~~-|-5~~~~~~~~~~~~~~-|-4~~~~~~~~~~~~~~~~~~~~~~~~~~~~~~~~-|
|-2~~~~~~~~~~~~~~-|-5~~~~~~~~~~~~~~-|-5~~~~~~~~~~~~~~~~~~~~~~~~~~~~~~~~-|
|-2~~~~~~~~~~~~~~-|-3~~~~~~~~~~~~~~-|-5~~~~~~~~~~~~~~~~~~~~~~~~~~~~~~~~-|
|-0~~~~~~~~~~~~~~-|-----------------|-3~~~~~~~~~~~~~~~~~~~~~~~~~~~~~~~~-|

  1 ^ 2 ^ 3 ^ 4 ^   1 ^ 2 ^ 3 ^ 4 ^   1 ^ 2 ^ 3 ^ 4 ^   1 ^ 2 ^ 3 ^ 4 ^
|-0~~~~~~~~~~~~~~-|-3~~~~~~~~~~~~~~-|-3~~~~~~~~~~~~~~-|-----------------|
|-0~~~~~~~~~~~~~~-|-5~~~~~~~~~~~~~~-|-3~~~~~~~~~~~~~~-|-----------------|
|-0~~~~~~~~~~~~~~-|-5~~~~~~~~~~~~~~-|-4~~~~~~~~~~~~~~-|-4~~~~~~-4~~~~~~-|
|-2~~~~~~~~~~~~~~-|-5~~~~~~~~~~~~~~-|-5~~~~~~~~~~~~~~-|-5~~~~~~-5~~~~~~-|
|-2~~~~~~~~~~~~~~-|-3~~~~~~~~~~~~~~-|-5~~~~~~~~~~~~~~-|-5~~~~~~-5~~~~~~-|
|-0~~~~~~~~~~~~~~-|-----------------|-3~~~~~~~~~~~~~~-|-3~~~~~~-2~~~~~~-|

  1 ^ 2 ^ 3 ^ 4 ^   1 ^ 2 ^ 3 ^ 4 ^   1 ^ 2 ^ 3 ^ 4 ^   1 ^ 2 ^ 3 ^ 4 ^
|-0~~~~~~~~~~~~~~-|-3~~~~~~~~~~~~~~-|-3~~~~~~-3~~~~~~-|-----------------|
|-0~~~~~~~~~~~~~~-|-5~~~~~~~~~~~~~~-|-3~~~~~~-3~~~~~~-|-----------------|
|-0~~~~~~~~~~~~~~-|-5~~~~~~~~~~~~~~-|-4~~~~~~-4~~~~~~-|-4~~-4~~-4~~-4~~-|
|-2~~~~~~~~~~~~~~-|-5~~~~~~~~~~~~~~-|-5~~~~~~-5~~~~~~-|-5~~-5~~-5~~-5~~-|
|-2~~~~~~~~~~~~~~-|-3~~~~~~~~~~~~~~-|-5~~~~~~-5~~~~~~-|-5~~-5~~-5~~-5~~-|
|-0~~~~~~~~~~~~~~-|-----------------|-3~~~~~~-3~~~~~~-|-3~~-3~~-2~~-2~~-|

(1:33-1:52)
  1  ^  2  ^  3  ^  4  ^    1  ^  2  ^  3  ^  4  ^    1  ^  2  ^  3  ^  4  ^    1  ^  2  ^  3  ^  4  ^
|-------------------------|-------------------------|-------------------------|-------------------------|
|-------------------------|-------------------------|-12-12-12-12-12-12-12-12-|-12-12-12-12-12-12-12-12-|
|-0--0--0--0--0--0--0--0--|-9--9--9--9--9--9--9--9--|-12-12-12-12-12-12-12-12-|-12-12-12-12-12-12-12-12-|
|-2--2--2--2--2--2--2--2--|-10-10-10-10-10-10-10-10-|-12-12-12-12-12-12-12-12-|-12-12-12-12-12-12-12-12-|
|-2--2--2--2--2--2--2--2--|-10-10-10-10-10-10-10-10-|-10-10-10-10-10-10-10-10-|-10-10-10-10-9--9--9--9--|
|-0--0--0--0--0--0--0--0--|-8--8--8--8--8--8--8--8--|-------------------------|-------------------------|

  1  ^  2  ^  3  ^  4  ^    1  ^  2  ^  3  ^  4  ^    1  ^  2  ^  3  ^  4  ^    1  ^  2  ^  3  ^  4  ^ 
|-------------------------|-------------------------|-------------------------|-------------------------|
|-8--8--8--8--8--8--8--8--|-5--5--5--5--5--5--5--5--|-------------------------|-------------------------|
|-9--9--9--9--9--9--9--9--|-5--5--5--5--5--5--5--5--|-4--4--4--4--4--4--4--4--|-4--4--4--4--4--4--4--4--|
|-9--9--9--9--9--9--9--9--|-5--5--5--5--5--5--5--5--|-5--5--5--5--5--5--5--5--|-5--5--5--5--5--5--5--5--|
|-7--7--7--7--7--7--7--7--|-3--3--3--3--3--3--3--3--|-5--5--5--5--5--5--5--5--|-5--5--5--5--5--5--5--5--|
|-------------------------|-------------------------|-3--3--3--3--3--3--3--3--|-3--3--3--3--2--2--2--2--|

  1  ^  2  ^  3  ^  4  ^    1  ^  2  ^  3  ^  4  ^    1  ^  2  ^  3  ^  4  ^    1  ^  2  ^  3  ^  4  ^
|-------------------------|-------------------------|-------------------------|-------------------------|
|-------------------------|-------------------------|-12-12-12-12-12-12-12-12-|-12-12-12-12-12-12-12-12-|
|-0--0--0--0--0--0--0--0--|-9--9--9--9--9--9--9--9--|-12-12-12-12-12-12-12-12-|-12-12-12-12-12-12-12-12-|
|-2--2--2--2--2--2--2--2--|-10-10-10-10-10-10-10-10-|-12-12-12-12-12-12-12-12-|-12-12-12-12-12-12-12-12-|
|-2--2--2--2--2--2--2--2--|-10-10-10-10-10-10-10-10-|-10-10-10-10-10-10-10-10-|-10-10-10-10-9--9--9--9--|
|-0--0--0--0--0--0--0--0--|-8--8--8--8--8--8--8--8--|-------------------------|-------------------------|

  1  ^  2  ^  3  ^  4  ^    1  ^  2  ^  3  ^  4  ^    1  ^  2  ^  3  ^  4  ^    1  ^  2  ^  3  ^  4  ^ 
|-------------------------|-------------------------|-------------------------|-_triplet_---_triplet_---|
|-8--8--8--8--8--8--8--8--|-5--5--5--5--5--5--5--5--|-------------------------|/---------\-/---------\--|
|-9--9--9--9--9--9--9--9--|-5--5--5--5--5--5--5--5--|-4--4--4--4--4--4--4--4--|-4---4---4---4---4---4---|
|-9--9--9--9--9--9--9--9--|-5--5--5--5--5--5--5--5--|-5--5--5--5--5--5--5--5--|-5---5---5---5---5---5---|
|-7--7--7--7--7--7--7--7--|-3--3--3--3--3--3--3--3--|-5--5--5--5--5--5--5--5--|-5---5---5---5---5---5---|
|-------------------------|-------------------------|-3--3--3--3--3--3--3--3--|-3---3---3---3---3---3---|


Part 3: (clean, tempo is slower here))
(1:52-2:35)
  1 ^ 2 ^ 3 ^ 4 ^   1 ^ 2 ^ 3 ^ 4 ^   1 ^ 2 ^ 3 ^ 4 ^   1 ^ 2 ^ 3 ^ 4 ^
|-----------------|-----------------|-----------------|-----------------|\
|---------0~~~--0-|---------5~~~--5-|---------3---5-3-|-5br-3---3-------| \
|-------------0---|-----------------|-----3/4---------|-------4---4\2p0-|  |
|-----2~~~--------|-----5~~~----5---|-----------------|-----------------|  |
|-----------------|-3~~~------------|-----------------|-----------------|  |
|-0~~~------------|-----------------|-3---------------|-----------------|  |
                                                                         (x3)
  1 ^ 2 ^ 3 ^ 4 ^   1 ^ 2 ^ 3 ^ 4 ^   1 ^ 2 ^ 3 ^ 4 ^   1 ^ 2 ^ 3 ^ 4 ^    |
|-----------------|-----------------|-----------------|-----------------|  |
|---------0~~~--0-|---------5~~~--5-|---------3-------|-----0-----0---0-|  |
|-------------0---|-----------------|-----3/4-----4/5-|---5-----5-------|  |
|-----2~~~--------|-----5~~~----5---|-----------------|-----------------|  |
|-----------------|-3~~~------------|-----------------|-----------------| /
|-0~~~------------|-----------------|-3---------------|-5-----5-----5---|/

Part 4: (light distortion, switches to a triplet feel)
(2:35-2:57)
"He's making hexagons..."
  1  ^  ^  2  ^  ^  3  ^  ^  4  ^  ^    1  ^  ^  2  ^  ^  3  ^  ^  4  ^  ^ 
|-------------------------------------|-------------------------------------|
|----------------------------5--------|-------------------------------------|
|----------0-----------------5--------|----------4--------4--------4b-4b----|
|----------2--------5--5--5--5--5--5--|----------5--------5--------5b-5b----|
|-2--2--2--2--2--2--3--3--3--3--3--3--|-5--5--5--5--5--5--5--5--5--5b-5b-5--|
|-0--0--0--0--0--0--------------------|-3--3--3--3--3--3--3--3--3--3b-3b-3--|
  *  *  *  *  *  *  *  *  *  *  *  *    *  *  *  *  *  *  *  *  *  *  *  *

  1  ^  ^  2  ^  ^  3  ^  ^  4  ^  ^    1  ^  ^  2  ^  ^  3  ^  ^  4  ^  ^ 
|-------------------------------------|-------------------------------------|
|-------------------5--------5--------|-------------------------------------|
|----------0--------5--------5--------|----------4--------4--------4b-4b----|
|----------2--------5--5--5--5--5--5--|----------5--------5-----5b-5b-5b----|
|-2--2--2--2--2--2--3--3--3--3--3--3--|-5--5--5--5--5--5--5--5--5b-5b-5b-5--|
|-0--0--0--0--0--0--------------------|-3--3--3--3--3--3--3--3--3b-3b-3b-3--|
  *  *  *  *  *  *  *  *  *  *  *  *    *  *  *  *  *  *  *  *  *  *  *  *

  1  ^  ^  2  ^  ^  3  ^  ^  4  ^  ^    1  ^  ^  2  ^  ^  3  ^  ^  4  ^  ^ 
|-------------------------------------|-------------------------------------|
|-------------------5--------5--------|-------------------------------------|
|----------0--------5--------5--------|----------4b-4--4--4b-4b-4b-4b-4b-4b-|
|----------2--------5--5--5--5--5--5--|-------5--5b-5--5--5b-5b-5b-5b-5b-5b-|
|-2--2--2--2--2--2--3--3--3--3--3--3--|-5--5--5--5b-5--5--5b-5b-5b-5b-5b-5b-|
|-0--0--0--0--0--0--------------------|-3--3--3--3b-3--3--3b-3b-3b-3b-3b-3b-|
  *  *  *  *  *  *  *  *  *  *  *  *    *  *  *

  1  ^  ^  2  ^  ^  3  ^  ^  4  ^  ^    1  ^  ^  2  ^  ^  3  ^  ^  4  ^  ^ 
|-------------------------------------|-------------------x--5--5--x--5--5--|
|-------------------5--5--5--5--5--5--|-------------------x--5--5--x--5--5--|
|----------0--------5--5--5--5--5--5--|-4--4--4--4--4--4--x--5--5--x--5--5--|
|----------2--------5--5--5--5--5--5--|-5--5--5--5--5--5--x--7--7--x--7--7--|
|-2--2--2--2--2--2--3--3--3--3--3--3--|-5--5--5--5--5--5--x--7--7--x--7--7--|
|-0--0--0--0--0--0--------------------|-3--3--3--3--3--3--x--5--5--x--5--5--|
  *  *  *     *  *

“And in the junkyard…” (distortion)
(2:57-3:41)
  1  ^  ^  2  ^  ^  3  ^  ^  4  ^  ^    1  ^  ^  2  ^  ^  3  ^  ^  4  ^  ^ 
|-------------------------------------|-------------------------------------|\
|-------------------------------------|-12-12-12-12-12-12-12-12-12-12-12-12-| \
|-0--0--0--0--0--0--9--9--9--9--9--9--|-12-12-12-12-12-12-12-12-12-12-12-12-|  |
|-2--2--2--2--2--2--10-10-10-10-10-10-|-12-12-12-12-12-12-12-12-12-12-12-12-|  |
|-2--2--2--2--2--2--10-10-10-10-10-10-|-10-10-10-10-10-10-10-10-10-9--9--9--|  |
|-0--0--0--0--0--0--8--8--8--8--8--8--|-------------------------------------|  |
                                                                             (x4)
  1  ^  ^  2  ^  ^  3  ^  ^  4  ^  ^    1  ^  ^  2  ^  ^  3  ^  ^  4  ^  ^     |
|-------------------------------------|-------------------------------------|  |
|-8--8--8--8--8--8--5--5--5--5--5--5--|-------------------------------------|  |
|-9--9--9--9--9--9--5--5--5--5--5--5--|-4--4--4--4--4--4--4--4--4--4--4--4--|  |
|-9--9--9--9--9--9--5--5--5--5--5--5--|-5--5--5--5--5--5--5--5--5--5--5--5--|  |
|-7--7--7--7--7--7--3--3--3--3--3--3--|-5--5--5--5--5--5--5--5--5--5--5--5--| /
|-------------------------------------|-3--3--3--3--3--3--3--3--3--2--2--2--|/


Part 5: (distortion)
(3:41-4:31)
  1  ^  ^  2  ^  ^  3  ^  ^  4  ^  ^    1  ^  ^  2  ^  ^  3  ^  ^  4  ^  ^ 
|-------------------------------------|-------------------------------------|\
|----8--------8--------10-------10----|----8--------8--------8-----7--------| \
|-------9--------9--------9--------9--|-------------------------------------|  |
|-9--------9--------10-------10-------|-------9--------9--------9-----9-----|  |
|-------------------------------------|-10-------10-------10-------------10-|  |
|-------------------------------------|-------------------------------------|  |
                                                                             (x2)
  1  ^  ^  2  ^  ^  3  ^  ^  4  ^  ^    1  ^  ^  2  ^  ^  3  ^  ^  4  ^  ^     |
|-------------------------------------|-------------------------------------|  |
|----8--------8--------10-------10----|----8--------8-----7--------7--------|  |
|-------9--------9--------9--------9--|-------------------------------------|  |
|-9--------9--------10-------10-------|-------9--------9-----9--------9-----|  |
|-------------------------------------|-10-------10-------------10-------10-| /
|-------------------------------------|-------------------------------------|/

  1  ^  ^  2  ^  ^  3  ^  ^  4  ^  ^    1  ^  ^  2  ^  ^  3  ^  ^  4  ^  ^ 
|-------------------------------------|-------------------------------------|\
|-8--8--8--8--8--8--10-10-10-12-12-12-|-8--8--8--8--8--8--8--8--8--7--7--7--| \
|-9--9--9--9--9--9--9--9--9--9--9--9--|-x--x--x--x--x--x--x--x--x--x--x--x--|  |
|-9--9--9--9--9--9--10-10-10-10-10-10-|-9--9--9--9--9--9--9--9--9--9--9--9--|  |
|-------------------------------------|-10-10-10-10-10-10-10-10-10-10-10-10-|  |
|-------------------------------------|-------------------------------------|  |
                                                                             (x2)
  1  ^  ^  2  ^  ^  3  ^  ^  4  ^  ^    1  ^  ^  2  ^  ^  3  ^  ^  4  ^  ^     |
|-------------------------------------|-------------------------------------|  |
|-8--8--8--8--8--8--10-10-10-12-12-12-|-12-12-12-12b12b12b12b12b12b12b12b12b|  |
|-9--9--9--9--9--9--9--9--9--9--9--9--|-x--x--x--x--x--x--x--x--x--x--x--x--|  |
|-9--9--9--9--9--9--10-10-10-10-10-10-|-x--x--x--x--x--x--x--x--x--x--x--x--|  |
|-------------------------------------|-10-10-10-10-10-10-10-10-10-10-10-10-| /
|-------------------------------------|-------------------------------------|/

  1 ^ 2 ^ 3 ^ 4 ^   1 ^ 2 ^ 3 ^ 4 ^   1 ^ 2 ^ 3 ^ 4 ^   1 ^ 2 ^ 3 ^ 4 ^
|-7~~~~~~~~~~~~~~-|-3~~~~~~~~~~~~~~-|-3~~~~~~~~~~~~~~~~~~~~~~~~~~~~~~~~-|
|-8~~~~~~~~~~~~~~-|-5~~~~~~~~~~~~~~-|-3~~~~~~~~~~~~~~~~~~~~~~~~~~~~~~~~-|
|-9~~~~~~~~~~~~~~-|-5~~~~~~~~~~~~~~-|-4~~~~~~~~~~~~~~~~~~~~~~~~~~~~~~~~-|
|-9~~~~~~~~~~~~~~-|-5~~~~~~~~~~~~~~-|-5~~~~~~~~~~~~~~~~~~~~~~~~~~~~~~~~-|
|-7~~~~~~~~~~~~~~-|-3~~~~~~~~~~~~~~-|-5~~~~~~~~~~~~~~~~~~~~~~~~~~~~~~~~-|
|-----------------|-----------------|-3~~~~~~~~~~~~~~~~~~~~~~~~~~~~~~~~-|


Outro, Part 6: (clean)
(4:31-4:57)
“Things slip sometimes…”
  1 ^ 2 ^ 3 ^ 4 ^   1 ^ 2 ^ 3 ^ 4 ^   1 ^ 2 ^ 3 ^ 4 ^   1 ^ 2 ^ 3 ^ 4 ^
|-----------------|-----------------|-----------------|-----------------|
|-0---------0-----|-1---------3-----|-0---------0-----|-0---------------|
|-------0---------|-------0---------|-------0---------|-------0-----0---|
|-----2-------2---|-----2-------2---|-----0-------0---|-----0-------0---|
|-----------------|-3-------3-------|-----------------|-----------------|
|-0-------0-------|-----------------|-3-------3-------|-3-------2-------|

  1 ^ 2 ^ 3 ^ 4 ^   1 ^ 2 ^ 3 ^ 4 ^   1 ^ 2 ^ 3 ^ 4 ^   1 ^ 2 ^ 3 ^ 4 ^
|-----------------|-----------------|-----------------|-----------------|
|-0---------0-----|-1---------3-----|-0---------0-----|-0---------------|
|-------0---------|-------0---------|-------0---------|-------0-----0---|
|-----2-------2---|-----2-------2---|-----0-------0---|-----0-------0---|
|-----------------|-3-------3-------|-----------------|-----------------|
|-0-------0-------|-----------------|-3-------3-------|-3-------2-------|

  1 ^ 2 ^ 3 ^ 4 ^   1 ^ 2 ^ 3 ^ 4 ^   1 ^ 2 ^ 3 ^ 4 ^   1 ^ 2 ^ 3 ^ 4 ^
|-----------------|-----------------|-----------------|-----------------|
|-0---------0-----|-1---------3-----|-0---------0-----|-0~~~~~~~~~~~~~~-|
|-------0---------|-------0---------|-------0---------|-----------------|
|-----2-------2---|-----2-------2---|-----0-------0---|-----------------|
|-----------------|-3-------3-------|-----------------|-----------------|
|-0-------0-------|-----------------|-3-------3-------|-3~~~~~~~~~~~~~~-|



************************************

| b  Bend
| r  Release bend
| x  Muted note
| *  Palm-muted
| /  Slide up
| \  Slide down
| ~  Hold note
| +  Harmonics
|(x) Implied note

************************************

Enjoy! Questions, comments, concerns, please let me know!
Suggest correction
Give kudos to tab author, rate the tab!
1 2 3 4 5
comments
print report bad tab
guest
You may want to rate the tab now too:
select rating
Wanna post a correction for this tab? Suggest correction