Oops, an error
Loading. Please wait.

Sleep Tab

16 views 3 this week
no commentswrite comment
1 2 3 4 5
3 more votes to show rating
add to favorites
launch autoscroll
font size
0
reset
how to read this tab
guitar tuner
Autoscroll
slow
fast
+/-
esc
set tempo
stop
Help us to improve Ultimate-Guitar.com Take our survey!
×
First track from Slow Warm Death's self titled album. Real easy and fun song to play, think I managed to 
get the solo out of the wall of fuzz but it might be a bit weird.

Enjoy!


INTRO :


E|--0-------4---|
B|--0-------4---|
G|--1-------5---|
D|--2-------6---|
A|--2-------6---|
E|--0-------4---|


Fig. 2 :

E|--5-------5---|
B|--5-------5---|
G|--6-------5---|
D|--7-------7---|
A|--7-------7---|
E|--5-------5---|



SOLO:

E|--------------------------------------------------|
B|--7b----7/5/4----2--2-----------------------------|
G|-------------------------4-4  4s6--s1-------0--1--|
D|--------------------------------------------------| 
A|--------------------------------------------------|
E|--------------------------------------------------|


E|--9b----12--14--12--15b--14-----------------------|
B|-----------------------------15-------------------|
G|---------------------------------16--15-----------|
D|--------------------------------------------------|
A|--------------------------------------------------|
E|--------------------------------------------------|



Intro
Fig. 2
Intro
FIG 2
INTRO
INTRO (DISTORTED)
Fig. 2 
INTRO
Fig. 2
SOLO
INTRO
Fig. 2



END ON:

E|--0----|
B|--0----|
G|--1----|
D|--2----|
A|--2----|
E|--0----|
Suggest correction
Give kudos to tab author, rate the tab!
1 2 3 4 5
comments
print report bad tab
guest
You may want to rate the tab now too:
select rating
Wanna post a correction for this tab? Suggest correction