Oops, an error
Loading. Please wait.

Crazy For You tab

version 1
version 1

Whole song

3,480 views 12 this week
2 commentsread comments
1 2 3 4 5
1 last vote to show rating
add to favorites
×
Save as Personal and add changes to this tab that will be seen only by you. Learn more ›
×
You can save this tab as Personal to edit and correct it or add notes. All changes will be seen only by you. Learn more »
launch autoscroll
font size
0
reset
how to read this tab
guitar tuner
edit
Autoscroll
slow
fast
+/-
esc
set tempo
stop
Difficulty
-----------------------------------------------------------------------------
                             Crazy For You - Slow Dive
-----------------------------------------------------------------------------
Tabbed by: Shandi Pierzina 
Email: spierzin@unlv.nevada.edu

Tuning: Standard

The guitar through out the song plays the same refrain through out the song. Simple, no?

e|--------8------------8----------7-----------|
B|--8--8---------8--8----------5--------------|
G|--------------------------------------------|
D|--------------------------------------------|
A|--------------------------------------------|
E|--------------------------------------------|




************************************

| /   slide up
| \   slide down
| h   hammer-on
| p   pull-off
| ~   vibrato
| +   harmonic
| x   Mute note
| b   Bend
| pb  Pre-bend
| br  Bend release
| pbr Pre-bend release
| brb Bend release bend

************************************

            
            
Suggest correction
Creating personal tab
Creating personal tab
You can edit any tab online and save it as your Personal.

You can edit, replace or remove any tab part or add personal notes – all changes will be seen only by you.

Personal tabs can be accessed anytime from any device, even offline.
Learn more »
Give kudos to tab author, rate the tab!
1 2 3 4 5
comments
print report bad tab
2 comments total.
0 reply
nightraven 60 Nov 19, 2010 02:19 PM

simple enough and you still got it wrong

+1 reply
Shandizzle 10 Nov 22, 2010 06:58 PM

Glad you caught my error. Because you know...no one else ever screws up...

Anyway:

e|--------8-------------10----------7-----------|
B|--8--8---------10--10----------5--------------|
G|----------------------------------------------|
D|----------------------------------------------|
A|----------------------------------------------|
E|----------------------------------------------|

guest
Wanna post a correction for this tab? Suggest correction