Oops, an error
Loading. Please wait.

Crazy For You tab

version 2
version 2

Whole song

4,970 views 15 this week
2 commentsread comments
1 2 3 4 5
x 4
add to favorites
×
Save as Personal and add changes to this tab that will be seen only by you. Learn more ›
×
You can save this tab as Personal to edit and correct it or add notes. All changes will be seen only by you. Learn more »
launch autoscroll
font size
0
reset
how to read this tab
guitar tuner
edit
Autoscroll
slow
fast
+/-
esc
set tempo
stop
Author
------------------------------------
      SLOWDIVE - CRAZY FOR YOU
------------------------------------


e|-----------------------------------------|
B|---------13-----------15-----------------|
G|-12--12-------14--14-----------16--------|
D|---------------------------14-----(14)---|
A|-----------------------------------------|
E|-----------------------------------------|


So it's that line through the whole thing.

If there are any corrections, feel free to leave a comment.

Have fun.
Suggest correction
Creating personal tab
Creating personal tab
You can edit any tab online and save it as your Personal.

You can edit, replace or remove any tab part or add personal notes – all changes will be seen only by you.

Personal tabs can be accessed anytime from any device, even offline.
Learn more »
comments
print report bad tab
2 comments total.
0 reply
Kote Kutalia 518 Aug 12, 2013 02:44 AM

Nice tabs ) Thanx

0 reply
Kote Kutalia 518 Aug 16, 2013 04:53 AM

e|-----------------------------------------|
B|---------13-----------15-------15--------|
G|-12--12-------14--14---------------16----|
D|---------------------------14------------|
A|-----------------------------------------|
E|-----------------------------------------|

guest
You may want to rate the tab now too:
select rating
Wanna post a correction for this tab? Suggest correction