Oops, an error
Loading. Please wait.

No Longer Making Time chords

version 1
version 1

Whole song

613 views 21 this week
2 commentsread comments
1 2 3 4 5
1 last vote to show rating
add to favorites
×
Save as Personal and add changes to this tab that will be seen only by you. Learn more ›
×
You can save this tab as Personal to edit and correct it or add notes. All changes will be seen only by you. Learn more »
launch autoscroll
font size
0
reset
transpose
0
reset
display chords
guitar tuner
edit
Autoscroll
slow
fast
+/-
esc
set tempo
stop
Strumming
There is no strumming pattern for this song yet. and get +5 IQ
Slowdive - No Longer Making Time


Slowdive's returning with a new album after 22 years,
so turn your reverb all the way up!

Lyrics in the verses are just placeholders for now, had to listen to the track
a couple of times to figure them out.


[Intro] 
0:04
        Bend the 9 while sustaining it:  \/ \/ \/ \/                                    
e|-------------------------------------------------------| \
B|-7-7-77--11-11--11-11-----------11-11--9~-9~-9~-9~-----|  \
G|-8-8-88--11-11-11-11--10-10-10--11-11--11-11-11-11-----|   Repeat 8 times
D|----------------------11-11----------------------------|   ~~~~~~~~~~~~~~
A|-------------------------------------------------------|  /
E|-------------------------------------------------------| /

e|---------------------------------|
B|-7-7-7-7-7-7-7-7-7-7-7-7-7-7-7-7-|
G|-8-8-8-8-8-8-8-8-8-8-8-8-8-8-8-8-|
D|---------------------------------|
A|---------------------------------|
E|---------------------------------|

[Verse]
1:20

F#                Fm           A#m
  Can't think to wait too long
F#                Fm         A#m
  You no longer make it tough
F#                Fm                   A#m
  Forever we wait   Together we breathe
F# (Keep playing F# until chorus)                                         
  No longer far too long

[Chorus]
2:20
        Bend the 9 while sustaining it:  \/ \/ \/ \/                                    
e|-------------------------------------------------------| \
B|-7-7-77--11-11--11-11-----------11-11--9~-9~-9~-9~-----|  \
G|-8-8-88--11-11-11-11--10-10-10--11-11--11-11-11-11-----|   Repeat 8 more times
D|----------------------11-11----------------------------|   ~~~~~~~~~~~~~~~~~~~
A|-------------------------------------------------------|  /
E|-------------------------------------------------------| /

Fade out into verse...
e|---------------------------------|
B|-7-7-7-7-7-7-7-7-7-7-7-7-7-7-7-7-|
G|-8-8-8---------------------------|
D|---------------------------------|
A|---------------------------------|
E|---------------------------------|

[Verse] 
3:36
F#              Fm         A#m
  Cathy don't wait too long
F#                Fm         A#m
  You no longer make it tough
F#               Fm                   A#m
  Forever we wait   Together we breathe
F#            
  No longer far too long
F#               Fm        A#m
  Cathy don't wait too long
F#                Fm        A#m
  We no longer make it tough
F#                  Fm                    A#m
  Forever we breathe   Together we breathe
F#            
  No longer far too long

[Outro] 
5:01
        Bend the 9 while sustaining it:  \/ \/ \/ \/                                    
e|-------------------------------------------------------| \
B|-7-7-77--11-11--11-11-----------11-11--9~-9~-9~-9~~~---|  \
G|-8-8-88--11-11-11-11--10-10-10--11-11--11-11-11-11~~~--|   Repeat 4 more times
D|----------------------11-11----------------------------|   ~~~~~~~~~~~~~~~~~~~
A|-------------------------------------------------------|  /
E|-------------------------------------------------------| / 

            
            
Suggest correction
Creating personal tab
Creating personal tab
You can edit any tab online and save it as your Personal.

You can edit, replace or remove any tab part or add personal notes – all changes will be seen only by you.

Personal tabs can be accessed anytime from any device, even offline.
Learn more »
Give kudos to tab author, rate the tab!
1 2 3 4 5
comments
print report bad tab
2 comments total.
0 reply
only.punk.rock.music 344 May 25, 2017 11:26 PM

Sounds excellent, thanaks!

0 reply
chudboy 10 Jun 23, 2017 07:43 AM

Fm chord doesn't sound right in the Chorus, but everything else sounds great.

guest
You may want to rate the tab now too:
select rating
Wanna post a correction for this tab? Suggest correction