Oops, an error
Loading. Please wait.

The Virgin Slut Tab

by Slut
180 views 1 this week
no commentswrite comment
1 2 3 4 5
please rate
add to favorites
launch autoscroll
font size
0
reset
how to read this tab
guitar tuner
Autoscroll
slow
fast
+/-
esc
set tempo
stop
Help us to improve Ultimate-Guitar.com Take our survey!
×
Author
drop d tune

intro, verse and melody
e---------------------------|
b---------------------------|
g-7--7--12--14--9--7--5--7--|
d-5--7--10--12--9--7--5--7--|
a-7--5--10--12--7--5--3--5--|
d-------10--12-----------5--|


pre chorus
e--------------------------------------|
b--------------------------------------|
g-12-12-12-12-12-12-12-12--9--7--5--7--|
d-12-12-12-12-10-10-10-10--x--x--x--0--|
a-10-10-10-10-10-10-10-10--7--5--3--5--|
d-------------10-10-10-10-----------0--|


chorus    part 1
e---------------------------------------|
b---------------------------------------|
g---------------------------------------|
d--5---5-5--7---7-7--9---9-9--5----5-5--|
a--5---5-5--5-x-5-5--7-x-7-7--3-x--3-3--|
d--5-x-5-5----x--------x--------x-------|

chorus    part 2
e-----------------------------------|
b-----------------------------------|
g--3-3-3-3-7-7-7-7-9-9-9-9-10101010-|
d--5-5-5-5-7-7-7-7-9-9-9-9-10101010-|
a--5-5-5-5-5-5-5-5-7-7-7-7-8-8-8-8--|
d--5-5-5-5-----------------8-8-8-8--|

coda
e-------------------|-----------------|
b-------------------|-----------------|
g---------7-----7-7-|-----7---4h5p4p0-|
d---5---5---5---7-7-|---7---7---------|
a-7---7-------7-----|-5---------------|
d-------------------|-----------------|
coda continued
e--------------------|-----------------|
b--------------------|-------------14^-|
g-------10h12--12-12-|-------14--15^---|
d-----10-----10---12-|-----12--12------|
a---10---------------|---12------------|
d-10-----------------|-12--------------|
coda continued
e---------------------------------------------------------|
b---------8-8-0---------5-5-0---------3-3-0---------------|
g-x-x-x-x-------7-7-7-7-------5-5-5-5-------------------7-|
d-9-9-9-9-------0-0-0-0-------5-5-5-5-------7-7-7-7-5-7---|
a-7-7-7-7-------5-5-5-5-------3-3-3-3-------5-5-5-5-------|
d-------------------------------------------5-5-5-5-------|

bridge
e-----------------------------------|
b-----------------------------------|
g-12--------7-------9-109-----------|
d-12--------7-------9----10-5-------|
a-10-----12-5-----5-7-------3-----5-|
d-----------------------------------|


outro chorus
e-7---7---8---7---7---7---10p7-8--|
b---8---8---8---8---8---8-----8---|
g---------------------------------|
d---------------------------------|
a---------------------------------|
d---------------------------------|
Suggest correction
Give kudos to tab author, rate the tab!
1 2 3 4 5
comments
print report bad tab
guest
You may want to rate the tab now too:
select rating
Wanna post a correction for this tab? Suggest correction