Oops, an error
Loading. Please wait.

Why Pourquoi I Think I Like You Tab

version 1
version 1

Whole song

Interactive

by Slut
1,027 views 1 this week
no commentswrite comment
1 2 3 4 5
2 more votes to show rating
add to favorites
launch autoscroll
font size
0
reset
how to read this tab
guitar tuner
Autoscroll
slow
fast
+/-
esc
set tempo
stop
Help us to improve Ultimate-Guitar.com Take our survey!
×
Author
Song: Why pourquoi (I think I like you)
Band: Slut
Album: All we need is Silence
Tuning: Standard

-------------
Intro:      |
-------------

Guitar 1: Part I

e|-----------------|---------------------|
B|-----------------|---------------------|
G|-7-7-7-7-7-6-6-6-|-11-11-11-11-6-6-6-6-|
D|-7-7-7-7-7-7-7-7-|-11-11-11-11-6-6-6-6-|
A|-5-5-5-5-5-5-5-5-|-9--9--9--9--4-4-4-4-|
E|-----------------|---------------------|


Guitar 1: Part II

e|-----------------|---------------------|
B|-----------------|---------------------|
G|-7-7-7-7-7-6-6-6-|-11-11-11-11-6-6-6-6-|
D|-7-7-7-7-7-7-7-7-|-11-11-11-11-6-6-6-6-|
A|-5-5-5-5-5-5-5-5-|-9--9--9--9--4-4-4-4-|
E|-5-5-5-5-5-5-5-5-|-9--9--9--9--4-4-4-4-|


Guitar 2:

e|-----------------|-----------------|
B|-----7-------7---|-----7-----------|
G|-----------------|-----------------|
D|-----------------|-----------------|
A|-----------------|-----------------|
E|-----------------|-----------------|


End of Intro:

Guitar 1:

e|-----------------|-----------------|-----|
B|-----------------|-----------------|-----|
G|-7-7-7-7-7-7-7-7-|-6-6-6-6-6-6-6-6-|-11\-|
D|-7-7-7-7-7-7-7-7-|-6-6-6-6-6-6-6-6-|-11\-|
A|-5-5-5-5-5-5-5-5-|-4-4-4-4-4-4-4-4-|-9---|
E|-5-5-5-5-5-5-5-5-|-----------------|-----|



Guitar 2:

e|-----------------|-----------------|
B|-----7-------7---|-9-9-9-9-9-9-9-9-|
G|-----------------|-x-x-x-x-x-x-x-x-|
D|-----------------|-6-6-6-6-6-6-6-6-|
A|-----------------|-----------------|
E|-----------------|-----------------|


--------
Verse: |
--------


Guitar 1:

e|-------------------------|---------------------|
B|-------------------------|---------------------|
G|-------------------------|---------------------|
D|--------------4-4-4-4----|-------------4-4-4---|
A|-5-5--5---5--5-----------|-5-5--5--5-5-------4-|
E|-------------------------|---------------------|

e|-------------------------|---------------------|
B|-------------------------|---------------------|
G|-------------------------|---------------------|
D|--------------4-4-4-4----|-------------4-4-4---|
A|-5-5--5---5--4-----------|-4-4--5--5-4-------4-|
E|-------------------------|---------------------|



Guitar 2:

e|-----------------|-----------------|
B|---2---2---2---2-|---2---2---2---2-|
G|-4---4---4---4---|-4---4---4---2---|
D|-----------------|-----------------|
A|-----------------|-----------------|
E|-----------------|-----------------|


---------------
Pre-Chorus    |
---------------

Guitar 1&2:

e|-----------------|-------------------------|
B|-----------------|-------------------------|
G|-7-7-7-7-7-7-7-7-|-------------------------|
D|-7-7-7-7-7-7-7-7-|-7-7-x-x-6-6-x-x-4-4-6-7-|
A|-5-5-5-5-5-5-5-5-|-7-7-x-x-6-6-x-x-4-4-6-7-|
E|-----------------|-5-5-x-x-4-4-x-x-2-2-4-5-|


e|-----------------|-----------------|
B|-----------------|-----------------|
G|-7-7-7-7-7-7-7-7-|-----------------|
D|-7-7-7-7-7-7-7-7-|-7-7-7-7-9-9-9-9-|
A|-5-5-5-5-5-5-5-5-|-7-7-7-7-9-9-9-9-|
E|-----------------|-5-5-5-5-7-7-7-7-|


-----------
Chorus    |
-----------

Guitar 1: 

e|-----------------|---------------------|
B|-----------------|---------------------|
G|-7-7-7-7-7-6-6-6-|-11-11-11-11-6-6-6-6-|
D|-7-7-7-7-7-7-7-7-|-11-11-11-11-6-6-6-6-|
A|-5-5-5-5-5-5-5-5-|-9--9--9--9--4-4-4-4-|
E|-5-5-5-5-5-5-5-5-|-9--9--9--9--4-4-4-4-|


Guitar 2:

e|-----------------|-----------------|
B|-----7-------7---|-----7-----------|
G|-----------------|-----------------|
D|-----------------|-----------------|
A|-----------------|-----------------|
E|-----------------|-----------------|


End of Chorus:

Guitar 1:

e|-----------------|-----------------|-----|
B|-----------------|-----------------|-----|
G|-7-7-7-7-7-7-7-7-|-6-6-6-6-6-6-6-6-|-11\-|
D|-7-7-7-7-7-7-7-7-|-6-6-6-6-6-6-6-6-|-11\-|
A|-5-5-5-5-5-5-5-5-|-4-4-4-4-4-4-4-4-|-9---|
E|-5-5-5-5-5-5-5-5-|-----------------|-----|



Guitar 2:

e|-----------------|-----------------|
B|-----7-------7---|-9-9-9-9-9-9-9-9-|
G|-----------------|-x-x-x-x-x-x-x-x-|
D|-----------------|-6-6-6-6-6-6-6-6-|
A|-----------------|-----------------|
E|-----------------|-----------------|





--------
Verse: |
--------


Guitar 1:

e|-------------------------|---------------------|
B|-------------------------|---------------------|
G|-------------------------|---------------------|
D|--------------4-4-4-4----|-------------4-4-4---|
A|-5-5--5---5--5-----------|-5-5--5--5-5-------4-|
E|-------------------------|---------------------|

e|-------------------------|---------------------|
B|-------------------------|---------------------|
G|-------------------------|---------------------|
D|--------------4-4-4-4----|-------------4-4-4---|
A|-5-5--5---5--4-----------|-4-4--5--5-4-------4-|
E|-------------------------|---------------------|



Guitar 2:

e|-----------------|-----------------|
B|---2---2---2---2-|---2---2---2---2-|
G|-4---4---4---4---|-4---4---4---2---|
D|-----------------|-----------------|
A|-----------------|-----------------|
E|-----------------|-----------------|





---------------
Pre-Chorus    |
---------------

Guitar 1&2:

e|-----------------|-------------------------|
B|-----------------|-------------------------|
G|-7-7-7-7-7-7-7-7-|-------------------------|
D|-7-7-7-7-7-7-7-7-|-7-7-x-x-6-6-x-x-4-4-6-7-|
A|-5-5-5-5-5-5-5-5-|-7-7-x-x-6-6-x-x-4-4-6-7-|
E|-----------------|-5-5-x-x-4-4-x-x-2-2-4-5-|


e|-----------------|-----------------|
B|-----------------|-----------------|
G|-7-7-7-7-7-7-7-7-|-----------------|
D|-7-7-7-7-7-7-7-7-|-7-7-7-7-9-9-9-9-|
A|-5-5-5-5-5-5-5-5-|-7-7-7-7-9-9-9-9-|
E|-----------------|-5-5-5-5-7-7-7-7-|


-----------
Chorus    |
-----------

Guitar 1: Part II

e|-----------------|---------------------|
B|-----------------|---------------------|
G|-7-7-7-7-7-6-6-6-|-11-11-11-11-6-6-6-6-|
D|-7-7-7-7-7-7-7-7-|-11-11-11-11-6-6-6-6-|
A|-5-5-5-5-5-5-5-5-|-9--9--9--9--4-4-4-4-|
E|-5-5-5-5-5-5-5-5-|-9--9--9--9--4-4-4-4-|


Guitar 2:

e|-----------------|-----------------|
B|-----7-------7---|-----7-----------|
G|-----------------|-----------------|
D|-----------------|-----------------|
A|-----------------|-----------------|
E|-----------------|-----------------|


End of Chorus:

Guitar 1:

e|-----------------|-----------------|-----|
B|-----------------|-----------------|-----|
G|-7-7-7-7-7-7-7-7-|-6-6-6-6-6-6-6-6-|-11\-|
D|-7-7-7-7-7-7-7-7-|-6-6-6-6-6-6-6-6-|-11\-|
A|-5-5-5-5-5-5-5-5-|-4-4-4-4-4-4-4-4-|-9---|
E|-5-5-5-5-5-5-5-5-|-----------------|-----|



Guitar 2:

e|-----------------|-----------------|
B|-----7-------7---|-9-9-9-9-9-9-9-9-|
G|-----------------|-x-x-x-x-x-x-x-x-|
D|-----------------|-6-6-6-6-6-6-6-6-|
A|-----------------|-----------------|
E|-----------------|-----------------|

-----------
Interlude:|
-----------

Guitar 1:

e|-----------------|-----------------|-----------------|
B|-----------------|-----------------|-----------------|
G|-7-7-7-7-7-7-7-7-|-6-6-6-6-6-6-6-6-|-6-6-6-6-6-6-6-6-|
D|-7-7-7-7-7-7-7-7-|-6-6-6-6-6-6-6-6-|-6-6-6-6-6-6-6-6-|
A|-5-5-5-5-5-5-5-5-|-4-4-4-4-4-4-4-4-|-4-4-4-4-4-4-4-4-|
E|-----------------|-----------------|-------------4-4-|


e|-----------------|-----------------|-----------------|
B|-----------------|-----------------|-----------------|
G|-7-7-7-7-7-7-7-7-|-6-6-6-6-6-6-6-6-|-6-6-6-6-6-6-6-6-|
D|-7-7-7-7-7-7-7-7-|-6-6-6-6-6-6-6-6-|-6-6-6-6-6-6-6-6-|
A|-5-5-5-5-5-5-5-5-|-4-4-4-4-4-4-4-4-|-4-4-4-4-4-4-4-4-|
E|-----------------|-----------------|---------4-4-4-4-|

Guitar 2:

e|-----------------|-----------------|-----------------|
B|-----------------|-----------------|-----------------|
G|-7-7-7-7-7-7-7-7-|-6-6-6-6-6-6-6-6-|-6-6-6-6-6-6-----|
D|-x-x-x-x-x-x-x-x-|-x-x-x-x-x-x-x-x-|-x-x-x-x-x-x-6-6-|
A|-5-5-5-5-5-5-5-5-|-4-4-4-4-4-4-4-4-|-4-4-4-4-4-4-x-x-|
E|-----------------|-----------------|-------------4-4-|

e|-----------------|-----------------|-----------------|
B|-----------------|-----------------|-----------------|
G|-7-7-7-7-7-7-7-7-|-6-6-6-6-6-6-6-6-|-6-6-6-6---------|
D|-x-x-x-x-x-x-x-x-|-x-x-x-x-x-x-x-x-|-x-x-x-x-6-6-6-6-|
A|-5-5-5-5-5-5-5-5-|-4-4-4-4-4-4-4-4-|-4-4-4-4-6-6-6-6-|
E|-----------------|-----------------|---------4-4-4-4-|


Go Back to Chorus 

End.

That's it
Hope you like it
Please Vote it.

Thanks
Suggest correction
Give kudos to tab author, rate the tab!
1 2 3 4 5
comments
print report bad tab
guest
You may want to rate the tab now too:
select rating
Wanna post a correction for this tab? Suggest correction