Oops, an error
Loading. Please wait.

So Prone chords

79 views 1 this week
no commentswrite comment
1 2 3 4 5
3 more votes to show rating
add to favorites
×
Save as Personal and add changes to this tab that will be seen only by you. Learn more ›
×
You can save this tab as Personal to edit and correct it or add notes. All changes will be seen only by you. Learn more »
launch autoscroll
font size
0
reset
transpose
0
reset
display chords
guitar tuner
edit
Autoscroll
slow
fast
+/-
esc
set tempo
stop
Strumming
There is no strumming pattern for this song yet. and get +5 IQ
[Intro] (x2)
E|-------------------------------|
B|-------------------------------|
G|-------------------------------|
D|-------11-9--------------------|
A|--9--12-----12-9--11-9---------|
E|----------------------12-9-----|

[Verse]
F#m
Be kind 
        D
Please let me come inside 
      A                                 B
It's cold and getting dark and you are sorry and i'm tired 
F#m
Dont hide 
       D
I can see it in your eyes
                A                               B
That you can't stand to be alone, but then you never really tried 

[Bridge]
F#m    D      A     C#
Oooooooooooooooooooooh 

[Verse]
F#m
So prone 
    D
To blood and broken bones
        A                                   B
I only asked if you still loved me and you said to let it go
F#m
Oh no
   D 
A butterfly exposed
               A                               B
We're just a casualty of growth and we've got nowhere else to go 

[Solo] (x2)
E|------------------------------------------------------------------------------|
B|------------------------------------------------------------------------------|
G|------------------------------------------------------------------------------|
D|--------------11-9--------------11-9------------------------------------------|
A|---9-9-12-9-9------12-9-9-12-9-9-----12-------9-------11-9--------7-------8---|
E|----------------------------------------10-10---10-10------12-9-9---9-9-9---9-|

            
            
Suggest correction
Creating personal tab
Creating personal tab
You can edit any tab online and save it as your Personal.

You can edit, replace or remove any tab part or add personal notes – all changes will be seen only by you.

Personal tabs can be accessed anytime from any device, even offline.
Learn more »
Give kudos to tab author, rate the tab!
1 2 3 4 5
comments
print report bad tab
guest
You may want to rate the tab now too:
select rating
Wanna post a correction for this tab? Suggest correction