Oops, an error
Loading. Please wait.

Run Rabbit Run Tab

2,122 views 1 this week
no commentswrite comment
1 2 3 4 5
please rate
add to favorites
launch autoscroll
font size
0
reset
how to read this tab
guitar tuner
Tab Pro tools
  • play this tab
  • loop segment
  • change instrument
  • show fretboard
  • metronome
×
Best way to learn
"Run Rabbit Run"
Autoscroll
slow
fast
+/-
esc
set tempo
stop
Contributor
-------------------------------------------------------------------------------
                             Run Rabbit Run - Smack
-------------------------------------------------------------------------------

Track Name: Run Rabbit Run
Artist: Smack
Album: On You
Year: 1984
Tuning: Starndard (E A D G B e)
Band website: www.smackonyou.com

Tabbed by: Garci
E-mail: garci.91@hotmail.com

It’s better if you listen to the song while reading the tabs to get a better grasp on
timing.

Riff 1

e|-------------------------------|
B|-------------------------------|
G|-------------------------------|
D|-------------------------------|
A|---------5---------------------|
E|-7-7-7-7---7-7-7-5-7-7-5-7---7-|

Riff 2

e|-------------------------------------------|
B|-------------------------------------------|
G|-------------------------------------------|
D|-------------------------------------------|
A|-------------------------------------------|
E|-5-7-7-5-7---7---5-7-7-5-7-7-5-7-5-7-7-5-7-|

Riff 3

   A  G                              A   B
e|-------------------------------------------------------------------|
B|-------------------------------------------------------------------|
G|-------------------------------------------------------------------|
D|-7---5---5-5-5-5-5-5-5-5-5-5-5-5---7---9---9-9-9-9-9-9-9-9-9-9-9-9-|
A|-7---5---5-5-5-5-5-5-5-5-5-5-5-5---7---9---9-9-9-9-9-9-9-9-9-9-9-9-|
E|-5---3---3-3-3-3-3-3-3-3-3-3-3-3---5---7---7-7-7-7-7-7-7-7-7-7-7-7-|

Riff 4

   A  G                              A   B             C#  D
e|----------------------------------------------------------------------------|
B|----------------------------------------------------------------------------|
G|----------------------------------------------------------------------------|
D|-7---5---5-5-5-5-5-5-5-5-5-5-5-5---7---9---9-9-9-9---11--12---12-12-12-12---|
A|-7---5---5-5-5-5-5-5-5-5-5-5-5-5---7---9---9-9-9-9---11--12---12-12-12-12---|
E|-5---3---3-3-3-3-3-3-3-3-3-3-3-3---5---7---7-7-7-7---9---10---10-10-10-10---|

Riff 4 (continued)

   B   E
e|----------------------------------------------------|
B|----------------------------------------------------|
G|----------------------------------------------------|
D|-9---14---14-14-14-14-14-14-14-14-14-14-14-14-14-14-|
A|-9---14---14-14-14-14-14-14-14-14-14-14-14-14-14-14-|
E|-7---12---12-12-12-12-12-12-12-12-12-12-12-12-12-12-|

Riff 5

   B       D B
e|-----------------------------|
B|-----------------------------|
G|---------7-------------------|
D|-9-9-9-9-7-9-9-9-9-9-9-9-9-9-|
A|-9-9-9-9-5-9-9-9-9-9-9-9-9-9-|
E|-7-7-7-7---7-7-7-7-7-7-7-7-7-|

Song Order:

Drum Intro
Riff 1 (x6)
Riff 2 (x1)
Riff 3 (x2)
Riff 4 (x1)

Riff 1 (x8)
Riff 2 (x1)
Riff 3 (x2)
Riff 4 (x1)

The ending is as follows:
Guitar 1: Riff 1 (x10)
Guitar 2: Riff 5 (x6) starting on 4th repeat of Riff 1 by Guitar 1
Guitar 3 fiddles between G and B on the high e string starting on the 8th repeat of Riff 
Guitar 1.

That’s it, enjoy!
comments
We did not receive enough feedback on this tab! Please rate:
print report bad tab
1 2 3 4 5
I want to post or [tab]
guest
You may want to rate the tab now too:
select rating
Please do not post tabs as comments. Select "correction" instead!