Oops, an error
Loading. Please wait.

Come Back And Take This Hurt Off Me Tab

251 views 1 this week
no commentswrite comment
1 2 3 4 5
please rate
add to favorites
launch autoscroll
font size
0
reset
how to read this tab
guitar tuner
Tab Pro tools
  • play this tab
  • loop segment
  • change instrument
  • show fretboard
  • metronome
×
Best way to learn
"Come Back And Take This Hurt Off Me"
Autoscroll
slow
fast
+/-
esc
set tempo
stop
Contributor
Come Back And Take This Hurt Off Me:Small Faces.
Released in 1967. (Uncharted.)

Here I have got the tablature as well the chords at the bottom of this page: its what 
you prefer to read off really, ENJOY!

INTRO:

E|-----------|-------0----------0--|--------0--0---------------|--|
B|-----------|-------2----------0--|--------2--0---------------|--|
G|-----------|-------2----------1--|--------2--1---------------|--|
D|-----------|-------2----------2--|--------2--2---------------|--|
A|-----------|--0----0----------2--|--0--0--0--2---------------|--|
E|--0--2--4--|------------0--0--0--|-----------0------0--2--4--|--|

E|-------0----------0--|--------0--0---------------|--|
B|-------2----------0--|--------2--0---------------|--|
G|-------2----------1--|--------2--1---------------|--|
D|-------2----------2--|--------2--2---------------|--|
A|--0----0----------2--|--0--0--0--2---------------|--|
E|------------0--0--0--|-----------0------0--2--4--|--|




CHORUS:

E|-------0----------0--|--------0--0---------------|--|
B|-------2----------0--|--------2--0---------------|--|
G|-------2----------1--|--------2--1---------------|--|
D|-------2----------2--|--------2--2---------------|--|
A|--0----0----------2--|--0--0--0--2---------------|--|
E|------------0--0--0--|-----------0------0--2--4--|--|

    Come back and take this hurt off me.

E|-------0----------0--|--------0--0---------------|--|
B|-------2----------0--|--------2--0---------------|--|
G|-------2----------1--|--------2--1---------------|--|
D|-------2----------2--|--------2--2---------------|--|
A|--0----0----------2--|--0--0--0--2---------------|--|
E|------------0--0--0--|-----------0------0--2--4--|--|

    Baby, come back and take this hurt off me.


           A          F#m                 D         E

Cause I'm too young, to be in misery, now.

E|-------0----------0----|--0--0--0--0--0--0--0--0--|--|
B|-------2----------0----|--2--0--0--0--0--0--0--0--|--|
G|-------2----------1----|--2--1--1--1--1--1--1--1--|--|
D|-------2----------2----|--2--2--2--2--2--2--2--2--|--|
A|--0----0----------2----|--0--2--2--2--2--2--2--2--|--|
E|------------0--0--0----|-----0--0--0--0--0--0--0--|--|

   Baby, come back and take this hurt off me.




VERSE 1.

E|-------5---------5--|-------2----------------|--|
B|-------5---------5--|-------2----------------|--|
G|-------6---------6--|-------2----------------|--|
D|-------7---------7--|-------4----4--4--4--4--|--|
A|-------7---------7--|-------4----4--4--4--4--|--|
E|--5----5----4----5--|--2----2----0--0--2--0--|--|

      I've been waitin' at the bus station

E|-------5---------5--|-------2----------------|--|
B|-------5---------5--|-------2----------------|--|
G|-------6---------6--|-------2----------------|--|
D|-------7---------7--|-------4----4--4--4--4--|--|
A|-------7---------7--|-------4----4--4--4--4--|--|
E|--5----5----4----5--|--2----2----0--0--2--0--|--|

Cause that's where you left me standin'

             A               F#m                 D               E

Got my clothes in a twenty-five-cent locker,

E|--0------------|---------------------------------------------|--|
B|--2------------|---------------------------------------------|--|
G|--2------------|---------------------------------------------|--|
D|--2------------|---------------------------------------------|--|
A|--0------------|---------------------------------------------|--|
E|---------------|------------------------------------0--2--4--|--|

I'll be here till the Greyhound brings you back again, baby.




CHORUS:

E|-------0----------0--|--------0--0---------------|--|
B|-------2----------0--|--------2--0---------------|--|
G|-------2----------1--|--------2--1---------------|--|
D|-------2----------2--|--------2--2---------------|--|
A|--0----0----------2--|--0--0--0--2---------------|--|
E|------------0--0--0--|-----------0------0--2--4--|--|

     Come back and take this hurt off me.

E|-------0----------0--|--------0--0---------------|--|
B|-------2----------0--|--------2--0---------------|--|
G|-------2----------1--|--------2--1---------------|--|
D|-------2----------2--|--------2--2---------------|--|
A|--0----0----------2--|--0--0--0--2---------------|--|
E|------------0--0--0--|-----------0------0--2--4--|--|

    Baby, come back and take this hurt off me.

          A          F#m                 D         E

Cause I'm too young, to be in misery, now.

E|-------0----------0----|--0--0--0--0--0--0--0--0--|--|
B|-------2----------0----|--2--0--0--0--0--0--0--0--|--|
G|-------2----------1----|--2--1--1--1--1--1--1--1--|--|
D|-------2----------2----|--2--2--2--2--2--2--2--2--|--|
A|--0----0----------2----|--0--2--2--2--2--2--2--2--|--|
E|------------0--0--0----|-----0--0--0--0--0--0--0--|--|

    Baby, come back and take this hurt off me.



VERSE 2.

E|-------5---------5--|-------2----------------|--|
B|-------5---------5--|-------2----------------|--|
G|-------6---------6--|-------2----------------|--|
D|-------7---------7--|-------4----4--4--4--4--|--|
A|-------7---------7--|-------4----4--4--4--4--|--|
E|--5----5----4----5--|--2----2----0--0--2--0--|--|

     I knocked on my mother's door, she said

E|-------5---------5--|-------2----------------|--|
B|-------5---------5--|-------2----------------|--|
G|-------6---------6--|-------2----------------|--|
D|-------7---------7--|-------4----4--4--4--4--|--|
A|-------7---------7--|-------4----4--4--4--4--|--|
E|--5----5----4----5--|--2----2----0--0--2--0--|--|

      Steven, walk on in.


               A               F#m                 D               E

Son, you don't have to say a mumbling word,

E|--0------------|---------------------------------------------|--|
B|--2------------|---------------------------------------------|--|
G|--2------------|---------------------------------------------|--|
D|--2------------|---------------------------------------------|--|
A|--0------------|---------------------------------------------|--|
E|---------------|------------------------------------0--2--4--|--|

   she left my little baby again. Yes, she did, now!



CHORUS:

E|-------0----------0--|--------0--0---------------|--|
B|-------2----------0--|--------2--0---------------|--|
G|-------2----------1--|--------2--1---------------|--|
D|-------2----------2--|--------2--2---------------|--|
A|--0----0----------2--|--0--0--0--2---------------|--|
E|------------0--0--0--|-----------0------0--2--4--|--|

     Come back and take this hurt off me.

E|-------0----------0--|--------0--0---------------|--|
B|-------2----------0--|--------2--0---------------|--|
G|-------2----------1--|--------2--1---------------|--|
D|-------2----------2--|--------2--2---------------|--|
A|--0----0----------2--|--0--0--0--2----- 0--2--4--|--|
E|------------0--0--0--|-----------0---------------|--|

     Baby, come back and take this hurt off me.

D              F#m       E        A

Baby, baby, baby, baby, baby now

D              F#m       E        A

What kind of love could this be?

D              F#m       E        A

Baby, baby, baby, I don't know what you got

    E      pause
Its got me, it got me, it got me ... yes it did.


INTRO:

E|-----------|-------0----------0--|--------0--0---------------|--|
B|-----------|-------2----------0--|--------2--0---------------|--|
G|-----------|-------2----------1--|--------2--1---------------|--|
D|-----------|-------2----------2--|--------2--2---------------|--|
A|-----------|--0----0----------2--|--0--0--0--2---------------|--|
E|--0--2--4--|------------0--0--0--|-----------0------0--2--4--|--|

E|-------0----------0--|--------0--0---------------|--|
B|-------2----------0--|--------2--0---------------|--|
G|-------2----------1--|--------2--1---------------|--|
D|-------2----------2--|--------2--2---------------|--|
A|--0----0----------2--|--0--0--0--2---------------|--|
E|------------0--0--0--|-----------0------0--2--4--|--|



VERSE 3.

E|-------5---------5--|-------2----------------|--|
B|-------5---------5--|-------2----------------|--|
G|-------6---------6--|-------2----------------|--|
D|-------7---------7--|-------4----4--4--4--4--|--|
A|-------7---------7--|-------4----4--4--4--4--|--|
E|--5----5----4----5--|--2----2----0--0--2--0--|--|

    I've been to see my doctor

E|-------5---------5--|-------2----------------|--|
B|-------5---------5--|-------2----------------|--|
G|-------6---------6--|-------2----------------|--|
D|-------7---------7--|-------4----4--4--4--4--|--|
A|-------7---------7--|-------4----4--4--4--4--|--|
E|--5----5----4----5--|--2----2----0--0--2--0--|--|

    He did all he could.


               A               F#m                 D               E

     But there was nothing he could do for me, girl.

E|--0------------|---------------------------------------------|--|
B|--2------------|---------------------------------------------|--|
G|--2------------|---------------------------------------------|--|
D|--2------------|---------------------------------------------|--|
A|--0------------|---------------------------------------------|--|
E|---------------|------------------------------------0--2--4--|--|

    You're the only one who could. Come on Baby!



OUTRO:

E|-------0----------0--|--------0--0---------------|--|
B|-------2----------0--|--------2--0---------------|--|
G|-------2----------1--|--------2--1---------------|--|
D|-------2----------2--|--------2--2---------------|--|
A|--0----0----------2--|--0--0--0--2---------------|--|
E|------------0--0--0--|-----------0------0--2--4--|--|

    Come back and take this hurt off me.

E|-------0----------0--|--------0--0---------------|--|
B|-------2----------0--|--------2--0---------------|--|
G|-------2----------1--|--------2--1---------------|--|
D|-------2----------2--|--------2--2---------------|--|
A|--0----0----------2--|--0--0--0--2---------------|--|
E|------------0--0--0--|-----------0------0--2--4--|--|

    Come back and take this hurt off me.

E|-------0----------0--|--------0--0---------------|--|
B|-------2----------0--|--------2--0---------------|--|
G|-------2----------1--|--------2--1---------------|--|
D|-------2----------2--|--------2--2---------------|--|
A|--0----0----------2--|--0--0--0--2---------------|--|
E|------------0--0--0--|-----------0------0--2--4--|--|

    Hurt me so bad...hurt me..oh yeah, hurt me so bad, hurt me..(Fade.)









C.H.O.R.D.S:


A     E    x4

CHORUS:

A          E                        A             E
Come back and take this hurt off me.
A               E                             A             E
Baby, come back and take this hurt off me.
          A          F#m               D           E
Cause I'm too young, to be in misery, now.
A                E                          A E
Baby, come back and take this hurt off me.

VERSE 1.
               A        Amaj7       F#m
I've been waitin' at the bus station,
      A                    Amaj7           F#m
cause that's where you left me standin'.
      A              F#m           D              E
Got my clothes in a twenty-five-cent locker,
     A        {pause}
I'll be here till the Greyhound brings you
E
back again, baby.

CHORUS:

A          E                        A             E
Come back and take this hurt off me.
A               E                             A             E
Baby, come back and take this hurt off me.
          A          F#m               D           E
Cause I'm too young, to be in misery, now.
A                E                          A E
Baby, come back and take this hurt off me.

VERSE 2
  A                        Amaj7     F#m
I knocked on my mother's door, she said,
A        Amaj7      F#m
Steven, walk on in.
         A                     F#m       D           E
Son, you don't have to say a mumbling word,
    A        {pause}                          E
she left my little baby again. Yes, she did, now!

CHORUS:
A          E                        A             E
Come back and take this hurt off me.
A               E                             A             E
Baby, come back and take this hurt off me.

D                    F#m         E            A
Baby, baby, baby, baby, baby, now..
D        F#m             E            A
What kind of love could this be?
D                    F#m         E            A
Baby, baby, baby, I don't know what you've done..
   E           {pause}
it got me, it got me, it got me..yes it did.


A     E     A      E       A      E


VERSE 3.

   A               Amaj7     F#m
I've been to see my doctor,
 A        Amaj7     F#m
He did all he could.
                    A            F#m         D       E
But there was nothing he could do for me, girl.
A       {pause}
You're the only one who could. Come on Baby!

OUTRO:
A         E                        A          E
Come back and take this hurt off me.
A           E                  A                      E
Baby, come back and take this hurt off me.
A                E              A               E             A            E
Hurt me so bad...hurt me..oh yeah, hurt me so bad, hurt me..(Fade.)


Tabs By Sedg166
comments
We did not receive enough feedback on this tab! Please rate:
print report bad tab
1 2 3 4 5
I want to post or [tab]
guest
You may want to rate the tab now too:
select rating
Please do not post tabs as comments. Select "correction" instead!