Oops, an error
Loading. Please wait.

Tin Soldier Tab

version 1
version 1

Whole song

Interactive

26,013 views 39 this week
1 commentread comment
1 2 3 4 5
excellent!
x 8
add to favorites
launch autoscroll
font size
0
reset
how to read this tab
guitar tuner
Tab Pro tools
  • play this tab
  • loop segment
  • change instrument
  • show fretboard
  • metronome
Autoscroll
slow
fast
+/-
esc
set tempo
stop
tin soldier
small faces

intro
E    G    D    A    E

E(riff 1)
-----------------|
-----------------|
-----------------|
-----0-----0---5-|
-0h2---0h2---2---|
-----------------|

E      G            D       A      E
------------3-------3-2----------- ----------|
------------0-----------3---3-2--- ----------|
--1-----------0---0-------------2- ----2---1-|
----2-----0-----0---0------------- ----2---2-|
------2---------------------0----- ------2---|
0-------3------------------------- --0---0---|


verse
riff 2
-------------------|
-------------------|
-------------------|
-----0h2p0---0h2p0-|
-0h2-------2-------|
-------------------|
E           G           D             A              E
im a little tin solder that wants to jump into your fire(riff 2)
i all need is your whispered hellos smiles melting  snow of daybreak

riff 2
C#m
-4-4-----|
-5---5---|
-6-----6-|
-6-------|
-4-------|
---------|

E           G           D             A               C#m
you are a look in your eye a dream passing by in the sky(riff 2)
you eyes go deeper than time saying love that ~~~~~ without words

pre chorus

D      F                    A                      F#m
i dont understand and all i need is treat me like a man
so now ive lost way i need help to shoe me things to say

 D             A                    F#m    D
cause i aint no child take me like i am
so give me your love before mine fades away

chorus

E        G      D         A
i got to know i belong to you
do anything that you  you want me to
ill sing any song that you want me to
        D(to pre outro 2x)   C B
sing to you

bridge
E    G     A    G
i dont need no confrontation
i just got to make you listen

pre outro
E          Dsus4 D Dsus2 D
oh yeah oh yeah

outro
A
i just wont some reaction
B
someone to give me satisfacton
C
im about to ~~~~~
D
its writen with you
         E
cause i love you

http://www.geocities.com/abc_tabs/
comments
print report bad tab
1 comment total.
0 reply
astonmartini wrote on June 27 2007, 01:46 am

good tab.
i thik riff ones more like this tho

E(riff 1)
-----------------|
-----------------|
-----------------|
-----0-0h2-0---5-|
-0h2---------2---|
-----------------|

I want to post or [tab]
guest
You may want to rate the tab now too:
select rating
Please do not post tabs as comments. Select "correction" instead!