Oops, an error
Loading. Please wait.

Oh Hiding Out chords

28 views 1 this week
no commentswrite comment
1 2 3 4 5
3 more votes to show rating
add to favorites
×
Save as Personal and add changes to this tab that will be seen only by you. Learn more ›
×
You can save this tab as Personal to edit and correct it or add notes. All changes will be seen only by you. Learn more »
launch autoscroll
font size
0
reset
transpose
0
reset
simplify chords
display chords
guitar tuner
edit
Autoscroll
slow
fast
+/-
esc
set tempo
stop
Strumming
There is no strumming pattern for this song yet. and get +5 IQ
Double Drop D Tuning (DADGBd)
Capo 5

[Chords]
D:    004320
D5:   000230
Dsus: 002030
G:    520000

[Intro]
d|---------------0--------------------------------0--|
B|---------------3--------------------------------3--|
G|---------------2--------------------------------2--|
D|----------0h2--2h4--4--4p2--0-------------------0--|
A|--0--0h2---------------------h2--0h2--0---------0--|
D|-----------------------------------------/5--0--0--|
                 D                                D5

d|--0----------------0----(0)----------------------------|
B|-------------------3----(3)----------------0-----------|
G|-----2-------------0----(0)----------------0-----------| (x2)
D|--------0-------0--0h2--(2)--2h4--4p2--0---0-----------|
A|-----------0h2-----0-----0----------------(2)--0--0h2--|
D|-------------------0-----------------------5-----------|
                     Dsus                    G            

[Verse]
         D5
Well I'm staying with a friend down on 20,
                            Dsus
where the yelling ain't that hard,
                          G
and the yelling ain't that hard.
         D5
And the boys they're gonna shout with the living,
                        Dsus
and stay just where they are,
                    G
stay just where they are.

[Chorus]
           Dsus                   G
I've got a year to miss with every town I'm in,
       Dsus                  G
and a girl just to break my heart.

[Verse]
             D5
And on the weekends we can drive into the city,
                          Dsus
where the leavings left and far,
                     G
the leavings left and far.

[Instrumental] (x2)
D  D5  Dsus  G 

[Verse]
        D5
And St. Louis isn't gone, no it's hidden,
                  Dsus
and waiting in my voice,
             G 
waiting in my voice.
        D5
And the boys, they hear my block when they listen,
                   Dsus
and sing with every noise,
               G
sing with every noise.

[Chorus]
           Dsus                   G
I've got a year to miss with every town I'm in,
       Dsus                  G
and a girl just to break my heart.

[Verse]
      D5
And although I said I meant it when I didn't,
                   Dsus
let's dream of Illinois,
            G
dream of Illinois.

[Instrumental] (x2)
D  D5  Dsus  G

[Chorus]
        Dsus                   G
I got a year to miss with every town I'm in,
       Dsus                  G
and a girl just to break my heart.
           Dsus                      G
Well Sarah I can't lift just too much more than this,
           Dsus                   G
there's my head, this town, and heart.

[Verse]
       D5
So I'm staying with a friend down on 20,
                            Dsus
where the yelling ain't that hard,
                          G
and the yelling ain't that hard.

[Outro]
d|--------------------0------------------------------0--|
B|--------------------3------------------------------3--|
G|--------------------2------------------------------2--|
D|---------------0h2--2h4--4--4p2--0-----------------0--|
A|--0--0h2--0h2---------------------h2--0h2p0-----0--0--|
D|---------------------------------------------5-----0--|
                      D                              D5

            
            
Suggest correction
Creating personal tab
Creating personal tab
You can edit any tab online and save it as your Personal.

You can edit, replace or remove any tab part or add personal notes – all changes will be seen only by you.

Personal tabs can be accessed anytime from any device, even offline.
Learn more »
Give kudos to tab author, rate the tab!
1 2 3 4 5
comments
print report bad tab
guest
You may want to rate the tab now too:
select rating
Wanna post a correction for this tab? Suggest correction