Oops, an error
Loading. Please wait.

Blind Eye bass

34 views 1 this week
no commentswrite comment
1 2 3 4 5
2 more votes to show rating
add to favorites
×
Save as Personal and add changes to this tab that will be seen only by you. Learn more ›
×
You can save this tab as Personal to edit and correct it or add notes. All changes will be seen only by you. Learn more »
launch autoscroll
font size
0
reset
guitar tuner
edit
Autoscroll
slow
fast
+/-
esc
set tempo
stop
Author
Difficulty
[Intro]

F#|-------------------------------------------------------|
C#|-------------------------------------------------------|
G#|3--3--3-3-3--------------------------------------------|
C#|------------3--3-3--3-3-3-3-7--7--7-7-7-3--5--7--5-5-5-|

F#|------------------------------------------------------------|
C#|------------------------------------------------------------|
G#|3--3--3-3-3-------------------------------------------------|
C#|------------3--3-3--3-3-3-3-7-7-7-5-5-5-3-3-3-5-5-5-5-5-5-5-|

[Verse 1]

F#|----------------------------------------------------------------|
C#|----------------------------------------------------------------|
G#|3-3-3-3-3-3-3-3-3-3-3-3-3-3-3-3---------------------------------|
C#|--------------------------------3-3-3-3-3-3-3-3-3-3-3-3-3-3-3-3-|

F#|----------------------------------------------------------------|
C#|----------------------------------------------------------------|
G#|3-3-3-3-3-3-3-3-3-3-3-3-3-3-3-3---------------------------------|
C#|--------------------------------3-3-3-3-3-3-3-3-3-3-3-3-3-3-3-3-|

F#|--------------------------------------------------------|
C#|--------------------------------------------------------|
G#|3--3-3--3-3-3--3-3-3--3-3-3-----------------------------|
C#|----------------------------3--3-3--3-3-3--3-3-3--3-3-3-|

F#|------------------------------------------------------------|
C#|------------------------------------------------------------|
G#|3--3-3--3-3-3--3-3-3-5--7-----------------------------------|
C#|----------------------------3-3-3-3-3-3-3-3-3-3-3-3-3-3-3-3-|

F#|----------------------------------------------------------------|
C#|----------------------------------------------------------------|
G#|3-3-3-3-3-3-3-3-3-3-3-3-3-3-3-3---------------------------------|
C#|--------------------------------3-3-3-3-3-3-3-3-3-3-3-3-3-3-3-3-|

F#|----------------------------------------------------------------|
C#|----------------------------------------------------------------|
G#|3-3-3-3-3-3-3-3-3-3-3-3-3-3-3-3---------------------------------|
C#|--------------------------------3-3-3-3-3-3-3-3-3-3-3-3-3-3-3-3-|

F#|--------------------------------------------------------|
C#|--------------------------------------------------------|
G#|3--3-3--3-3-3--3-3-3--3-3-3-----------------------------|
C#|----------------------------3--3-3--3-3-3--3-3-3--3-3-3-|

F#|------------------------------------------------------------|
C#|------------------------------------------------------------|
G#|3--3-3--3-3-3--3-3-3-5--7-----------------------------------|
C#|----------------------------3-3-3-3-3-3-3-3-3-3-3-3-3-3-3-3-|

[Pre-Chorus]

F#|---------------------------------------------------------------|
C#|---------------------------------------------------------------|
G#|---------------------------------------------------------------|
C#|7-----------------------------3--------------------------------|

[Chorus]

F#|-------------------------------------------------------|
C#|-------------------------------------------------------|
G#|3--3--3-3-3--------------------------------------------|
C#|------------3--3-3--3-3-3-7--7-7--7-7-7-3--5--7--5-5-5-|

F#|-----------------------------------------------------------|
C#|-----------------------------------------------------------|
G#|3--3--3-3-3------------------------------------------------|
C#|------------3--3-3--3-3-3-7--7-7-5-5-5-3-3-3-5-5-5-5-5-5-5-|


F#|-------------------------------------------------------|
C#|-------------------------------------------------------|
G#|3--3--3-3-3--------------------------------------------|
C#|------------3--3-3--3-3-3-7--7-7--7-7-7-3--5--7--5-5-5-|

F#|-----------------------------------------------------------|
C#|-----------------------------------------------------------|
G#|3--3--3-3-3------------------------------------------------|
C#|------------3--3-3--3-3-3-7--7-7-5-5-5-3-3-3-5-5-5-5-5-5-5-|

[Interlude]

F#|-----------------------------------------------------------------|
C#|----------------5-5-3-3-2-2-3-3----------------------------------|
G#|3-3-3-3-3-3-3-3--------------------------------------------------|
C#|--------------------------------3-3-3-3-3-3-3-3-3-3-3-3-3--------|

[Verse 2]

F#|----------------------------------------------------------------|
C#|----------------------------------------------------------------|
G#|3-3-3-3-3-3-3-3-3-3-3-3-3-3-3-3---------------------------------|
C#|--------------------------------3-3-3-3-3-3-3-3-3-3-3-3-3-3-3-3-|

F#|----------------------------------------------------------|
C#|----------------------------------------------------------|
G#|3-3-3-3-3-3-3-3-3-3-3-3-3-3-3-3---------------------------|
C#|--------------------------------3-3-3-3-3-3-3-3-3---3--5--|

F#|--------------------------------------------------------|
C#|--------------------------------------------------------|
G#|3--3-3--3-3-3--3-3-3--3-3-3-----------------------------|
C#|----------------------------3--3-3--3-3-3--3-3-3--3-3-3-|

F#|------------------------------------------------------------|
C#|------------------------------------------------------------|
G#|3--3-3--3-3-3--3-3-3-5--7-----------------------------------|
C#|----------------------------3-3-3-3-3-3-3-3-3-3-3-3-3-3-3-3-|

[Pre-Chorus]

F#|---------------------------------------------------------------|
C#|---------------------------------------------------------------|
G#|---------------------------------------------------------------|
C#|7-----------------------------3--------------------------------|

[Chorus]

F#|-------------------------------------------------------|
C#|-------------------------------------------------------|
G#|3--3--3-3-3--------------------------------------------|
C#|------------3--3-3--3-3-3-7--7-7--7-7-7-3--5--7--5-5-5-|

F#|-----------------------------------------------------------|
C#|-----------------------------------------------------------|
G#|3--3--3-3-3------------------------------------------------|
C#|------------3--3-3--3-3-3-7--7-7-5-5-5-3-3-3-5-5-5-5-5-5-5-|


F#|-------------------------------------------------------|
C#|-------------------------------------------------------|
G#|3--3--3-3-3--------------------------------------------|
C#|------------3--3-3--3-3-3-7--7-7--7-7-7-3--5--7--5-5-5-|

F#|-----------------------------------------------------------|
C#|-----------------------------------------------------------|
G#|3--3--3-3-3------------------------------------------------|
C#|------------3--3-3--3-3-3-7--7-7-5-5-5-3-3-3-5-5-5-5-5-5-5-|
[Bridge]

F#|---------------------------------------------------------------|
C#|---------------------------------------------------------------|
G#|---------------------------------------------------------------|
C#|7-----------------------------3--------------------------------|

F#|---------------------------------------------------------------|
C#|---------------------------------------------------------------|
G#|3--------------------------------------------------------------|
C#|------------------------------5--------------------------------|

F#|----------------------------------------------------------------|
C#|----------------------------------------------------------------|
G#|----------------------------------------------------------------|
C#|7-7-7-7-7-7-7-7-7-7-7-7-7-7-7-7-3-3-3-3-3-3-3-3-3-3-3-3-3-3-3-3-|

F#|----------------------------------------------------------------------------|
C#|----------------5-5-3-3-2-2-3-3---------------------------------------------|
G#|3-3-3-3-3-3-3-3---------------------------------3-3-3-3-3-3-3-3-3\----------|
C#|--------------------------------3-3-3-3-3-3-3-3-----------------------------|

[Chorus]

F#|-------------------------------------------------------|
C#|-------------------------------------------------------|
G#|3--3--3-3-3--------------------------------------------|
C#|------------3--3-3--3-3-3-7--7-7--7-7-7-3--5--7--5-5-5-|

F#|-----------------------------------------------------------|
C#|-----------------------------------------------------------|
G#|3--3--3-3-3------------------------------------------------|
C#|------------3--3-3--3-3-3-7--7-7-5-5-5-3-3-3-5-5-5-5-5-5-5-|


F#|-------------------------------------------------------|
C#|-------------------------------------------------------|
G#|3--3--3-3-3--------------------------------------------|
C#|------------3--3-3--3-3-3-7--7-7--7-7-7-3--5--7--5-5-5-|

F#|-----------------------------------------------------------|
C#|-----------------------------------------------------------|
G#|3--3--3-3-3----------------------------------------------3-|
C#|------------3--3-3--3-3-3-7--7-7-5-5-5-3-3-3-5-5-5-5-5-5---|


************************************

| \   Slide down

************************************
Suggest correction
Creating personal tab
Creating personal tab
You can edit any tab online and save it as your Personal.

You can edit, replace or remove any tab part or add personal notes – all changes will be seen only by you.

Personal tabs can be accessed anytime from any device, even offline.
Learn more »
Give kudos to tab author, rate the tab!
1 2 3 4 5
comments
print report bad tab
guest
You may want to rate the tab now too:
select rating
Wanna post a correction for this tab? Suggest correction