Oops, an error
Loading. Please wait.

Blind Eye tab

34 views 1 this week
1 commentread comment
1 2 3 4 5
1 last vote to show rating
add to favorites
×
Save as Personal and add changes to this tab that will be seen only by you. Learn more ›
×
You can save this tab as Personal to edit and correct it or add notes. All changes will be seen only by you. Learn more »
launch autoscroll
font size
0
reset
how to read this tab
guitar tuner
edit
Autoscroll
slow
fast
+/-
esc
set tempo
stop
[Intro]

D#|----------------------------------------------------------|
A#|----------------------------------------------------------|
F#|5-5-5-5-5-5-----------------------------------------------|
C#|5-5-5-5-5-5--3--3-3-3-3-3-3-3-7-7-7-7-7-7--3--5--7--5-5-5-|
G#|3-3-3-3-3-3--3--3-3-3-3-3-3-3-7-7-7-7-7-7--3--5--7--5-5-5-|
C#|-------------3--3-3-3-3-3-3-3-7-7-7-7-7-7--3--5--7--5-5-5-|

D#|--------------------------------------------------------------|
A#|--------------------------------------------------------------|
F#|5-5-5-5-5-5---------------------------------------------------|
C#|5-5-5-5-5-5--3--3-3-3-3-3-3-3-7-7-7-5-5-5-3-3-3-5-5-5-5-5-5-5-|
G#|3-3-3-3-3-3--3--3-3-3-3-3-3-3-7-7-7-5-5-5-3-3-3-5-5-5-5-5-5-5-|
C#|-------------3--3-3-3-3-3-3-3-7-7-7-5-5-5-3-3-3-5-5-5-5-5-5-5-|


[Verse]

      PM------------------------|    PM-------------------------|
D#|--------------------------------------------------------------|
A#|--------------------------------------------------------------|
F#|5--5-5-5-5-5-5-5-5-5-5-5-5-5-5--------------------------------|
C#|5--5-5-5-5-5-5-5-5-5-5-5-5-5-5-3--3-3-3-3-3-3-3-3-3-3-3-3-3-3-|
G#|3--3-3-3-3-3-3-3-3-3-3-3-3-3-3-3--3-3-3-3-3-3-3-3-3-3-3-3-3-3-|
C#|-------------------------------3--3-3-3-3-3-3-3-3-3-3-3-3-3-3-|

      PM------------------------|    PM-----------------------|
D#|------------------------------------------------------------|
A#|------------------------------------------------------------|
F#|5--5-5-5-5-5-5-5-5-5-5-5-5-5-5------------------------------|
C#|5--5-5-5-5-5-5-5-5-5-5-5-5-5-5-3--3-3-3-3-3-3-3-3-3-3-3-3-3-|
G#|3--3-3-3-3-3-3-3-3-3-3-3-3-3-3-3--3-3-3-3-3-3-3-3-3-3-3-3-3-|
C#|-------------------------------3--3-3-3-3-3-3-3-3-3-3-3-3-3-|

D#|------------------------------------------------------------|
A#|------------------------------------------------------------|
F#|5--5-5-5-5-5-5-5-5-5-5-5-5-5-5------------------------------|
C#|5--5-5-5-5-5-5-5-5-5-5-5-5-5-5-3--3-3-3-3-3-3-3-3-3-3-3-3-3-|
G#|3--3-3-3-3-3-3-3-3-3-3-3-3-3-3-3--3-3-3-3-3-3-3-3-3-3-3-3-3-|
C#|-------------------------------3--3-3-3-3-3-3-3-3-3-3-3-3-3-|

D#|-----------------------------------------------------------------|
A#|-----------------------------------------------------------------|
F#|5--5-5-5-5-5-5-5-5-5-5-5-5-5-5-5---------------------------------|
C#|5--5-5-5-5-5-5-5-5-5-5-5-5-5-5-5-3-3-3-3-3-3-3-3-3-3-3-3-3-3-3-3-|
G#|3--3-3-3-3-3-3-3-3-3-3-3-3-3-3-3-3-3-3-3-3-3-3-3-3-3-3-3-3-3-3-3-|
C#|---------------------------------3-3-3-3-3-3-3-3-3-3-3-3-3-3-3-3-|

      PM------------------------|    PM-------------------------|
D#|--------------------------------------------------------------|
A#|--------------------------------------------------------------|
F#|5--5-5-5-5-5-5-5-5-5-5-5-5-5-5--------------------------------|
C#|5--5-5-5-5-5-5-5-5-5-5-5-5-5-5-3--3-3-3-3-3-3-3-3-3-3-3-3-3-3-|
G#|3--3-3-3-3-3-3-3-3-3-3-3-3-3-3-3--3-3-3-3-3-3-3-3-3-3-3-3-3-3-|
C#|-------------------------------3--3-3-3-3-3-3-3-3-3-3-3-3-3-3-|

      PM------------------------|    PM-----------------------|
D#|------------------------------------------------------------|
A#|------------------------------------------------------------|
F#|5--5-5-5-5-5-5-5-5-5-5-5-5-5-5------------------------------|
C#|5--5-5-5-5-5-5-5-5-5-5-5-5-5-5-3--3-3-3-3-3-3-3-3-3-3-3-3-3-|
G#|3--3-3-3-3-3-3-3-3-3-3-3-3-3-3-3--3-3-3-3-3-3-3-3-3-3-3-3-3-|
C#|-------------------------------3--3-3-3-3-3-3-3-3-3-3-3-3-3-|

D#|------------------------------------------------------------|
A#|------------------------------------------------------------|
F#|5--5-5-5-5-5-5-5-5-5-5-5-5-5-5------------------------------|
C#|5--5-5-5-5-5-5-5-5-5-5-5-5-5-5-3--3-3-3-3-3-3-3-3-3-3-3-3-3-|
G#|3--3-3-3-3-3-3-3-3-3-3-3-3-3-3-3--3-3-3-3-3-3-3-3-3-3-3-3-3-|
C#|-------------------------------3--3-3-3-3-3-3-3-3-3-3-3-3-3-|

D#|-----------------------------------------------------------------|
A#|-----------------------------------------------------------------|
F#|5--5-5-5-5-5-5-5-5-5-5-5-5-5-5-5---------------------------------|
C#|5--5-5-5-5-5-5-5-5-5-5-5-5-5-5-5-3-3-3-3-3-3-3-3-3-3-3-3-3-3-3-3-|
G#|3--3-3-3-3-3-3-3-3-3-3-3-3-3-3-3-3-3-3-3-3-3-3-3-3-3-3-3-3-3-3-3-|
C#|---------------------------------3-3-3-3-3-3-3-3-3-3-3-3-3-3-3-3-|


[Pre-Chorus]

D#|------------------------------x-x-x-x-|
A#|------------------------------x-x-x-x-|
F#|------------------------------x-x-x-x-|
C#|7----------------3------------x-x-x-x-|
G#|7----------------3------------x-x-x-x-|
C#|7----------------3------------x-x-x-x-|


[Chorus]

D#|---------------------------------------------------------|
A#|---------------------------------------------------------|
F#|5-5-5-5-5-5----------------------------------------------|
C#|5-5-5-5-5-5--3--3-3-3-3-3-3-7--7-7-7-7-7--3--5--7--5-5-5-|
G#|3-3-3-3-3-3--3--3-3-3-3-3-3-7--7-7-7-7-7--3--5--7--5-5-5-|
C#|-------------3--3-3-3-3-3-3-7--7-7-7-7-7--3--5--7--5-5-5-|

D#|-------------------------------------------------------------|
A#|-------------------------------------------------------------|
F#|5-5-5-5-5-5--------------------------------------------------|
C#|5-5-5-5-5-5--3--3-3-3-3-3-3-7--7-7-5-5-5-3-3-3-5-5-5-5-5-5-5-|
G#|3-3-3-3-3-3--3--3-3-3-3-3-3-7--7-7-5-5-5-3-3-3-5-5-5-5-5-5-5-|
C#|-------------3--3-3-3-3-3-3-7--7-7-5-5-5-3-3-3-5-5-5-5-5-5-5-|

D#|----------------------------------------------------------|
A#|----------------------------------------------------------|
F#|5-5-5-5-5-5-----------------------------------------------|
C#|5-5-5-5-5-5--3--3-3-3-3-3-3-3-7-7-7-7-7-7--3--5--7--5-5-5-|
G#|3-3-3-3-3-3--3--3-3-3-3-3-3-3-7-7-7-7-7-7--3--5--7--5-5-5-|
C#|-------------3--3-3-3-3-3-3-3-7-7-7-7-7-7--3--5--7--5-5-5-|

D#|-------------------------------------------------------------|
A#|-------------------------------------------------------------|
F#|5-5-5-5-5-5--------------------------------------------------|
C#|5-5-5-5-5-5--3--3-3-3-3-3-3-7--7-7-5-5-5-3-3-3-5-5-5-5-5-5-5-|
G#|3-3-3-3-3-3--3--3-3-3-3-3-3-7--7-7-5-5-5-3-3-3-5-5-5-5-5-5-5-|
C#|-------------3--3-3-3-3-3-3-7--7-7-5-5-5-3-3-3-5-5-5-5-5-5-5-|


[Interlude]  

   PM---------------------------| PM------------|
D#|--------------------------------------------------------------|
A#|--------------------------------------------------------------|
F#|5--5-5-5-5-5-5-5-5-5-5-5-5-5-5--------------------------------|
C#|5--5-5-5-5-5-5-5-5-5-5-5-5-5-5-3--3-3-3-3-3-3-3-3-3-3-3-------|
G#|3--3-3-3-3-3-3-3-3-3-3-3-3-3-3-3--3-3-3-3-3-3-3-3-3-3-3-------|
C#|-------------------------------3--3-3-3-3-3-3-3-3-3-3-3-------|


[Verse 2]

      PM------------------------|    PM-------------------------|
D#|--------------------------------------------------------------|
A#|--------------------------------------------------------------|
F#|5--5-5-5-5-5-5-5-5-5-5-5-5-5-5--------------------------------|
C#|5--5-5-5-5-5-5-5-5-5-5-5-5-5-5-3--3-3-3-3-3-3-3-3-3-3-3-3-3-3-|
G#|3--3-3-3-3-3-3-3-3-3-3-3-3-3-3-3--3-3-3-3-3-3-3-3-3-3-3-3-3-3-|
C#|-------------------------------3--3-3-3-3-3-3-3-3-3-3-3-3-3-3-|

      PM------------------------|    PM---------|
D#|--------------------------------------------------------|
A#|--------------------------------------------------------|
F#|5--5-5-5-5-5-5-5-5-5-5-5-5-5-5--------------------------|
C#|5--5-5-5-5-5-5-5-5-5-5-5-5-5-5-3--3-3-3-3-3-3-3---3--5--|
G#|3--3-3-3-3-3-3-3-3-3-3-3-3-3-3-3--3-3-3-3-3-3-3---3--5--|
C#|-------------------------------3--3-3-3-3-3-3-3---3--5--|

D#|------------------------------------------------------------|
A#|------------------------------------------------------------|
F#|5--5-5-5-5-5-5-5-5-5-5-5-5-5-5------------------------------|
C#|5--5-5-5-5-5-5-5-5-5-5-5-5-5-5-3--3-3-3-3-3-3-3-3-3-3-3-3-3-|
G#|3--3-3-3-3-3-3-3-3-3-3-3-3-3-3-3--3-3-3-3-3-3-3-3-3-3-3-3-3-|
C#|-------------------------------3--3-3-3-3-3-3-3-3-3-3-3-3-3-|

D#|-------------------------------------------------------------|
A#|-------------------------------------------------------------|
F#|5--5-5-5-5-5-5-5-5-5-7--9------------------------------------|
C#|5--5-5-5-5-5-5-5-5-5-7--9--3-3-3-3-3-3-3-3-3-3-3-3-3-3-3-3-3-|
G#|3--3-3-3-3-3-3-3-3-3-5--7--3-3-3-3-3-3-3-3-3-3-3-3-3-3-3-3-3-|
C#|---------------------------3-3-3-3-3-3-3-3-3-3-3-3-3-3-3-3-3-|


[Pre-Chorus]

D#|------------------------------x-x-x-x-|
A#|------------------------------x-x-x-x-|
F#|------------------------------x-x-x-x-|
C#|7----------------3------------x-x-x-x-|
G#|7----------------3------------x-x-x-x-|
C#|7----------------3------------x-x-x-x-|


[Chorus]

D#|---------------------------------------------------------|
A#|---------------------------------------------------------|
F#|5-5-5-5-5-5----------------------------------------------|
C#|5-5-5-5-5-5--3--3-3-3-3-3-3-7--7-7-7-7-7--3--5--7--5-5-5-|
G#|3-3-3-3-3-3--3--3-3-3-3-3-3-7--7-7-7-7-7--3--5--7--5-5-5-|
C#|-------------3--3-3-3-3-3-3-7--7-7-7-7-7--3--5--7--5-5-5-|

D#|-------------------------------------------------------------|
A#|-------------------------------------------------------------|
F#|5-5-5-5-5-5--------------------------------------------------|
C#|5-5-5-5-5-5--3--3-3-3-3-3-3-7--7-7-5-5-5-3-3-3-5-5-5-5-5-5-5-|
G#|3-3-3-3-3-3--3--3-3-3-3-3-3-7--7-7-5-5-5-3-3-3-5-5-5-5-5-5-5-|
C#|-------------3--3-3-3-3-3-3-7--7-7-5-5-5-3-3-3-5-5-5-5-5-5-5-|

D#|----------------------------------------------------------|
A#|----------------------------------------------------------|
F#|5-5-5-5-5-5-----------------------------------------------|
C#|5-5-5-5-5-5--3--3-3-3-3-3-3-3-7-7-7-7-7-7--3--5--7--5-5-5-|
G#|3-3-3-3-3-3--3--3-3-3-3-3-3-3-7-7-7-7-7-7--3--5--7--5-5-5-|
C#|-------------3--3-3-3-3-3-3-3-7-7-7-7-7-7--3--5--7--5-5-5-|

D#|-------------------------------------------------------------|
A#|-------------------------------------------------------------|
F#|5-5-5-5-5-5--------------------------------------------------|
C#|5-5-5-5-5-5--3--3-3-3-3-3-3-7--7-7-5-5-5-3-3-3-5-5-5-5-5-5-5-|
G#|3-3-3-3-3-3--3--3-3-3-3-3-3-7--7-7-5-5-5-3-3-3-5-5-5-5-5-5-5-|
C#|-------------3--3-3-3-3-3-3-7--7-7-5-5-5-3-3-3-5-5-5-5-5-5-5-|


[Bridge]

D#|--------------------------------------------------------------------|
A#|--------------------------------------------------------------------|
F#|----------------------------------5---------------------------------|
C#|7----------------3----------------5----------------5----------------|
G#|7----------------3----------------3----------------5----------------|
C#|7----------------3---------------------------------5----------------|

      PM-------------------------|   PM-------------------------|
D#|--------------------------------------------------------------|
A#|--------------------------------------------------------------|
F#|--------------------------------------------------------------|
C#|7--7-7-7-7-7-7-7-7-7-7-7-7-7-7-3--3-3-3-3-3-3-3-3-3-3-3-3-3-3-|
G#|7--7-7-7-7-7-7-7-7-7-7-7-7-7-7-3--3-3-3-3-3-3-3-3-3-3-3-3-3-3-|
C#|7--7-7-7-7-7-7-7-7-7-7-7-7-7-7-3--3-3-3-3-3-3-3-3-3-3-3-3-3-3-|

      PM------------------------|    PM--------|
D#|--------------------------------------------------------------------------x-x-x-x-|
A#|--------------------------------------------------------------------------x-x-x-x-|
F#|5--5-5-5-5-5-5-5-5-5-5-5-5-5-5----------------5-5-5-5-5-5-5-5-5\----------x-x-x-x-|
C#|5--5-5-5-5-5-5-5-5-5-5-5-5-5-5-3--3-3-3-3-3-3-5-5-5-5-5-5-5-5-5\----------x-x-x-x-|
G#|3--3-3-3-3-3-3-3-3-3-3-3-3-3-3-3--3-3-3-3-3-3-3-3-3-3-3-3-3-3-3\----------x-x-x-x-|
C#|-------------------------------3--3-3-3-3-3-3-----------------------------x-x-x-x-|


[Chorus]

D#|---------------------------------------------------------|
A#|---------------------------------------------------------|
F#|5-5-5-5-5-5----------------------------------------------|
C#|5-5-5-5-5-5--3--3-3-3-3-3-3-7--7-7-7-7-7--3--5--7--5-5-5-|
G#|3-3-3-3-3-3--3--3-3-3-3-3-3-7--7-7-7-7-7--3--5--7--5-5-5-|
C#|-------------3--3-3-3-3-3-3-7--7-7-7-7-7--3--5--7--5-5-5-|

D#|-------------------------------------------------------------|
A#|-------------------------------------------------------------|
F#|5-5-5-5-5-5--------------------------------------------------|
C#|5-5-5-5-5-5--3--3-3-3-3-3-3-7--7-7-5-5-5-3-3-3-5-5-5-5-5-5-5-|
G#|3-3-3-3-3-3--3--3-3-3-3-3-3-7--7-7-5-5-5-3-3-3-5-5-5-5-5-5-5-|
C#|-------------3--3-3-3-3-3-3-7--7-7-5-5-5-3-3-3-5-5-5-5-5-5-5-|

D#|----------------------------------------------------------|
A#|----------------------------------------------------------|
F#|5-5-5-5-5-5-----------------------------------------------|
C#|5-5-5-5-5-5--3--3-3-3-3-3-3-3-7-7-7-7-7-7--3--5--7--5-5-5-|
G#|3-3-3-3-3-3--3--3-3-3-3-3-3-3-7-7-7-7-7-7--3--5--7--5-5-5-|
C#|-------------3--3-3-3-3-3-3-3-7-7-7-7-7-7--3--5--7--5-5-5-|

D#|-------------------------------------------------------------|
A#|-------------------------------------------------------------|
F#|5-5-5-5-5-5------------------------------------------------5-|
C#|5-5-5-5-5-5--3--3-3-3-3-3-3-7--7-7-5-5-5-3-3-3-5-5-5-5-x-x-5-|
G#|3-3-3-3-3-3--3--3-3-3-3-3-3-7--7-7-5-5-5-3-3-3-5-5-5-5-x-x-3-|
C#|-------------3--3-3-3-3-3-3-7--7-7-5-5-5-3-3-3-5-5-5-5-x-x---|



************************************

| x   Dead note
| \   Slide down
| PM  Palm mute

************************************

            
            
Suggest correction
Creating personal tab
Creating personal tab
You can edit any tab online and save it as your Personal.

You can edit, replace or remove any tab part or add personal notes – all changes will be seen only by you.

Personal tabs can be accessed anytime from any device, even offline.
Learn more »
Give kudos to tab author, rate the tab!
1 2 3 4 5
comments
print report bad tab
1 comment total.
0 reply
alyssa_therese 10 Feb 12, 2017 02:11 AM

The tab is 10/10 perfect but I think the tuning is slightly off bc I played it in Drop D and it sounded good to me. :P

guest
You may want to rate the tab now too:
select rating
Wanna post a correction for this tab? Suggest correction