Oops, an error
Loading. Please wait.

He Is Sinking She Is The Sin Queen tab

70 views 1 this week
no commentswrite comment
1 2 3 4 5
2 more votes to show rating
add to favorites
×
Save as Personal and add changes to this tab that will be seen only by you. Learn more ›
×
You can save this tab as Personal to edit and correct it or add notes. All changes will be seen only by you. Learn more »
launch autoscroll
font size
0
reset
how to read this tab
guitar tuner
edit
Autoscroll
slow
fast
+/-
esc
set tempo
stop
[Intro]

D#|------------------------------------------------------------------|
A#|------------------------------------------------------------------|
F#|-10--10-10-10-10-10--7--7-7-7-7-7-7-7-7-7-7-7-7-7-5-5-5-5-5-5-5-5-|
C#|-10--10-10-10-10-10--7--7-7-7-7-7-7-7-7-7-7-7-7-7-5-5-5-5-5-5-5-5-|
G#|-8---8--8--8--8--8---5--5-5-5-5-5-5-5-5-5-5-5-5-5-3-3-3-3-3-3-3-3-|
C#|-8---8--8--8--8--8---5--5-5-5-5-5-----------------3-3-3-3-3-3-3-3-|


D#|-----------------------------------------------------------------------------------|
A#|-----------------------------------------------------------------------------------|
F#|-10-10--10-10-10-10--7-7-7-7-7-7-7-7-7-7-7-7-7-7-7-5-5-5-5-5-5-5-5-10--------------|
C#|-10-10--10-10-10-10--7-7-7-7-7-7-7-7-7-7-7-7-7-7-7-5-5-5-5-5-5-5-5-10--------------|
G#|-8--8---8--8--8--8---5-5-5-5-5-5-5-5-5-5-5-5-5-5-5-3-3-3-3-3-3-3-3-8---------------|
C#|-8--8---8--8--8--8---5-5-5-5-5-5-5-----------------3-3-3-3-3-3-3-3-8---------------|


[Chorus]

D#|-----------------------------------------------------------|
A#|-----------------------------------------------------------|
F#|------------------------------5--5-5-5-5-5-5-5-5-5-5-7-----|
C#|8--8-8-8-8-8-8-3--3-3-3-3-3-3-5--5-5-5-5-5-5-5-5-5-5-7--7--|
G#|8--8-8-8-8-8-8-3--3-3-3-3-3-3-3--3-3-3-3-3-3-3-3-3-3-5--7--|
C#|8--8-8-8-8-8-8-3--3-3-3-3-3-3---------------------------7--|

D#|---------------------------------------------------------------|
A#|---------------------------------------------------------------|
F#|------------------------------5--5-5-5-5-5-5-5-5-5-5-5-5-5-5-5-|
C#|8--8-8-8-8-8-8-3--3-3-3-3-3-3-5--5-5-5-5-5-5-5-5-5-5-5-5-5-5-5-|
G#|8--8-8-8-8-8-8-3--3-3-3-3-3-3-3--3-3-3-3-3-3-3-3-3-3-3-3-3-3-3-|
C#|8--8-8-8-8-8-8-3--3-3-3-3-3-3----------------------------------|


[Interlude]

D#|------------------------------------------------------------------|
A#|------------------------------------------------------------------|
F#|-10--10-10-10-10-10--7--7-7-7-7-7-7-7-7-7-7-7-7-7-5-5-5-5-5-5-5-5-|
C#|-10--10-10-10-10-10--7--7-7-7-7-7-7-7-7-7-7-7-7-7-5-5-5-5-5-5-5-5-|
G#|-8---8--8--8--8--8---5--5-5-5-5-5-5-5-5-5-5-5-5-5-3-3-3-3-3-3-3-3-|
C#|-8---8--8--8--8--8---5--5-5-5-5-5-----------------3-3-3-3-3-3-3-3-|


D#|-------------------------------------------------------------------|
A#|-------------------------------------------------------------------|
F#|-10-10--10-10-10-10--7-7-7-7-7-7-7-7-7-7-7-7-7-7-7-5-5-5-5-5-5-5-5-|
C#|-10-10--10-10-10-10--7-7-7-7-7-7-7-7-7-7-7-7-7-7-7-5-5-5-5-5-5-5-5-|
G#|-8--8---8--8--8--8---5-5-5-5-5-5-5-5-5-5-5-5-5-5-5-3-3-3-3-3-3-3-3-|
C#|-8--8---8--8--8--8---5-5-5-5-5-5-5-----------------3-3-3-3-3-3-3-3-|


[Verse 2]

she starts crying...
   PM--|      PM-|      PM------------------------|
D#|------------------------------------------------|
A#|------------------------------------------------|
F#|------------------------------------------------|
C#|-----------------3/7------------7-7-5-5---------|
G#|5-5----5/8-8---------3-3----3-3---------8-8-7-7-|
C#|------------------------------------------------|

   PM--|      PM-|      PM-----------------------|
D#|-----------------------------------------------|
A#|-----------------------------------------------|
F#|-----------------2/5---------------------------|
C#|-----------------3/7-2-2-----------------------|
G#|5-5----5/8-8---------3-3----3-/8-8-7-7-5-5-3-3-|
C#|-----------------------------------------------|

D#|-------------------------------|
A#|-------------------------------|
F#|-------------------------------|
C#|0------------------------------|
G#|-------------------------------|
C#|-------------------------------|


[Chorus]

D#|-----------------------------------------------------------|
A#|-----------------------------------------------------------|
F#|------------------------------5--5-5-5-5-5-5-5-5-5-5-7-----|
C#|8--8-8-8-8-8-8-3--3-3-3-3-3-3-5--5-5-5-5-5-5-5-5-5-5-7--7--|
G#|8--8-8-8-8-8-8-3--3-3-3-3-3-3-3--3-3-3-3-3-3-3-3-3-3-5--7--|
C#|8--8-8-8-8-8-8-3--3-3-3-3-3-3---------------------------7--|

D#|---------------------------------------------------------------|
A#|---------------------------------------------------------------|
F#|------------------------------5--5-5-5-5-5-5-5-5-5-5-5-5-5-5-5-|
C#|8--8-8-8-8-8-8-3--3-3-3-3-3-3-5--5-5-5-5-5-5-5-5-5-5-5-5-5-5-5-|
G#|8--8-8-8-8-8-8-3--3-3-3-3-3-3-3--3-3-3-3-3-3-3-3-3-3-3-3-3-3-3-|
C#|8--8-8-8-8-8-8-3--3-3-3-3-3-3----------------------------------|

D#|-----------------------------------------------------------|
A#|-----------------------------------------------------------|
F#|------------------------------5--5-5-5-5-5-5-5-5-5-5-7-----|
C#|8--8-8-8-8-8-8-3--3-3-3-3-3-3-5--5-5-5-5-5-5-5-5-5-5-7--7--|
G#|8--8-8-8-8-8-8-3--3-3-3-3-3-3-3--3-3-3-3-3-3-3-3-3-3-5--7--|
C#|8--8-8-8-8-8-8-3--3-3-3-3-3-3---------------------------7--|

D#|---------------------------------------------------------------|
A#|---------------------------------------------------------------|
F#|------------------------------5--5-5-5-5-5-5-5-5-5-5-5-5-5-----|
C#|8--8-8-8-8-8-8-3--3-3-3-3-3-3-5--5-5-5-5-5-5-5-5-5-5-5-5-5-----|
G#|8--8-8-8-8-8-8-3--3-3-3-3-3-3-3--3-3-3-3-3-3-3-3-3-3-3-3-3-----|
C#|8--8-8-8-8-8-8-3--3-3-3-3-3-3----------------------------------|


[Bridge]

D#|-------------------------------------|
A#|-------------------------------------|
F#|10-10-10-9--9--9--7-7-7-5-5-5--------|
C#|10-10-10-10-10-10-7-7-7-5-5-5-3-5-3--|
G#|8--8--8--8--8--8--5-5-5-3-3-3-3-5-3--|
C#|8--8--8--8--8--8--------------3-5-3--|

D#|------------------------------------------------|
A#|------------------------------------------------|
F#|10-10-10-9--9--9--12-12-12-9--9--9--9--10-10-10-|
C#|10-10-10-10-10-10-10-10-10-10-10-10-10-10-10-10-|
G#|8--8--8--8--8--8--8--8--8--8--8--8--8--8--8--8--|
C#|8--8--8--8--8--8--8--8--8--8--8--8--8--8--8--8--|

D#|-------------------------------------|
A#|-------------------------------------|
F#|10-10-10-9--9--9--7-7-7-5-5-5--------|
C#|10-10-10-10-10-10-7-7-7-5-5-5-3-5-3--|
G#|8--8--8--8--8--8--5-5-5-3-3-3-3-5-3--|
C#|8--8--8--8--8--8--------------3-5-3--|

D#|--------------------------------|
A#|--------------------------------|
F#|5-5-5-5-5-5-5-5-5-5-5-5-5-5-5-5-|
C#|5-5-5-5-5-5-5-5-5-5-5-5-5-5-5-5-|
G#|3-3-3-3-3-3-3-3-3-3-3-3-3-3-3-3-|
C#|--------------------------------|

D#|-------------------------------------|
A#|-------------------------------------|
F#|10-10-10-9--9--9--7-7-7-5-5-5--------|
C#|10-10-10-10-10-10-7-7-7-5-5-5-3-5-3--|
G#|8--8--8--8--8--8--5-5-5-3-3-3-3-5-3--|
C#|8--8--8--8--8--8--------------3-5-3--|

D#|------------------------------------------------|
A#|------------------------------------------------|
F#|10-10-10-9--9--9--12-12-12-9--9--9--9--10-10-10-|
C#|10-10-10-10-10-10-10-10-10-10-10-10-10-10-10-10-|
G#|8--8--8--8--8--8--8--8--8--8--8--8--8--8--8--8--|
C#|8--8--8--8--8--8--8--8--8--8--8--8--8--8--8--8--|

D#|-------------------------------------|
A#|-------------------------------------|
F#|10-10-10-9--9--9--7-7-7-5-5-5--------|
C#|10-10-10-10-10-10-7-7-7-5-5-5-3-5-3--|
G#|8--8--8--8--8--8--5-5-5-3-3-3-3-5-3--|
C#|8--8--8--8--8--8--------------3-5-3--|

D#|--------------------------------|
A#|--------------------------------|
F#|5-5-5-5-5-5-5-5-5-5-5-5-5-5-5-5-|
C#|5-5-5-5-5-5-5-5-5-5-5-5-5-5-5-5-|
G#|3-3-3-3-3-3-3-3-3-3-3-3-3-3-3-3-|
C#|--------------------------------|


[Interlude]

D#|-------------------------------------|
A#|-------------------------------------|
F#|9--------------------------------10\-|
C#|10-------------------------------10\-|
G#|8--------------------------------8-\-|
C#|-------------------------------------|


[Verse 3]

shard of glass...
   PM---|   PM---|  PM-|  PM---|     PM---|    PM---|   PM---|  PM-|   PM---|  PM-| PM-|
D#|----------------------------------------------------------------------------------------|
A#|----------------------------------------------------------------------------------------|
F#|----------------------------------------------------------------------------------------|
C#|----------------------------------------------------------------------------------------|
G#|------12-------12----12-------15--------15--------10-------10----10-------10----8----7--|
C#|12-12----12-12----12----12-12-----12-12-----10-10----10-10----10----10-10----10---10----|

   PM---|   PM---|  PM-|  PM---|     PM---|       PM---------|  
D#|---------------------------------------------------------------------------|
A#|---------------------------------------------------------------------------|
F#|--------------------------------------------5--5-5-5-5-5-5-5-5-5-5-5-5-5-5-|
C#|--------------------------------------------5--5-5-5-5-5-5-5-5-5-5-5-5-5-5-|
G#|------12-------12----12-------15--------15--3--3-3-3-3-3-3-3-3-3-3-3-3-3-3-|
C#|12-12----12-12----12----12-12-----12-12------------------------------------|


[Chorus]

the time can...
D#|-------------------------------|
A#|-------------------------------|
F#|-------------------------7-----|
C#|-------------------------7--7--|
G#|-------------------------5--7--|
C#|----------------------------7--|

D#|---------------------------------------------------------------|
A#|---------------------------------------------------------------|
F#|------------------------------5--5-5-5-5-5-5-5-5-5-5-5-5-5-5-5-|
C#|8--8-8-8-8-8-8-3--3-3-3-3-3-3-5--5-5-5-5-5-5-5-5-5-5-5-5-5-5-5-|
G#|8--8-8-8-8-8-8-3--3-3-3-3-3-3-3--3-3-3-3-3-3-3-3-3-3-3-3-3-3-3-|
C#|8--8-8-8-8-8-8-3--3-3-3-3-3-3----------------------------------|

D#|-----------------------------------------------------------|
A#|-----------------------------------------------------------|
F#|------------------------------5--5-5-5-5-5-5-5-5-5-5-7-----|
C#|8--8-8-8-8-8-8-3--3-3-3-3-3-3-5--5-5-5-5-5-5-5-5-5-5-7--7--|
G#|8--8-8-8-8-8-8-3--3-3-3-3-3-3-3--3-3-3-3-3-3-3-3-3-3-5--7--|
C#|8--8-8-8-8-8-8-3--3-3-3-3-3-3---------------------------7--|

D#|---------------------------------------------------------------|
A#|---------------------------------------------------------------|
F#|------------------------------5--5-5-5-5-5-5-5-5-5-5-5-5-5-----|
C#|8--8-8-8-8-8-8-3--3-3-3-3-3-3-5--5-5-5-5-5-5-5-5-5-5-5-5-5-----|
G#|8--8-8-8-8-8-8-3--3-3-3-3-3-3-3--3-3-3-3-3-3-3-3-3-3-3-3-3-----|
C#|8--8-8-8-8-8-8-3--3-3-3-3-3-3----------------------------------|


[Outro]

D#|-------------------------------------|
A#|-------------------------------------|
F#|10-10-10-9--9--9--7-7-7-5-5-5--------|
C#|10-10-10-10-10-10-7-7-7-5-5-5-3-5-3--|
G#|8--8--8--8--8--8--5-5-5-3-3-3-3-5-3--|
C#|8--8--8--8--8--8--------------3-5-3--|

D#|------------------------------------------------|
A#|------------------------------------------------|
F#|10-10-10-9--9--9--12-12-12-9--9--9--9--10-10-10-|
C#|10-10-10-10-10-10-10-10-10-10-10-10-10-10-10-10-|
G#|8--8--8--8--8--8--8--8--8--8--8--8--8--8--8--8--|
C#|8--8--8--8--8--8--8--8--8--8--8--8--8--8--8--8--|

D#|-------------------------------------|
A#|-------------------------------------|
F#|10-10-10-9--9--9--7-7-7-5-5-5--------|
C#|10-10-10-10-10-10-7-7-7-5-5-5-3-5-3--|
G#|8--8--8--8--8--8--5-5-5-3-3-3-3-5-3--|
C#|8--8--8--8--8--8--------------3-5-3--|

D#|--------------------------------|
A#|--------------------------------|
F#|5-5-5-5-5-5-5-5-5-5-5-5-5-5-5-5-|
C#|5-5-5-5-5-5-5-5-5-5-5-5-5-5-5-5-|
G#|3-3-3-3-3-3-3-3-3-3-3-3-3-3-3-3-|
C#|--------------------------------|

************************************

| /   Slide up
| \   Slide down
| PM  Palm mute

************************************ 
Suggest correction
Creating personal tab
Creating personal tab
You can edit any tab online and save it as your Personal.

You can edit, replace or remove any tab part or add personal notes – all changes will be seen only by you.

Personal tabs can be accessed anytime from any device, even offline.
Learn more »
Give kudos to tab author, rate the tab!
1 2 3 4 5
comments
print report bad tab
guest
You may want to rate the tab now too:
select rating
Wanna post a correction for this tab? Suggest correction