Oops, an error
Loading. Please wait.

Set Free bass

34 views 1 this week
no commentswrite comment
1 2 3 4 5
3 more votes to show rating
add to favorites
×
Save as Personal and add changes to this tab that will be seen only by you. Learn more ›
×
You can save this tab as Personal to edit and correct it or add notes. All changes will be seen only by you. Learn more »
launch autoscroll
font size
0
reset
guitar tuner
edit
Autoscroll
slow
fast
+/-
esc
set tempo
stop
[Intro]

G|--------------------------------------------------------|
D|--------------------------------------------------------|
A|5--5-5-5-5----------------------------------------------|
D|------------7--7-7-7-7-7---9-9-9-9--7--7--7-7-7-7-7-7-7-|

G|----------------------------------------------------------|
D|--------------------------------------------------5-4-----|
A|5--5-5-5-5-------------------5-5-5-5------------------7-5-|
D|------------7--7-7-7-7-7-7-7----------4--5--5-5-5---------|

G|--------------------------------------------------------|
D|--------------------------------------------------------|
A|5--5-5-5-5----------------------------------------------|
D|------------7--7-7-7-7-7---9-9-9-9--7--7--7-7-7-7-7-7-7-|

G|------------------------------------------------------|
D|------------------------------------------------------|
A|5--5-5-5-5--------------------------------------------|
D|------------7--7-7-7-7-7---5--5-5-5-5-5-5-5-7-7--7-7--|


[Verse 1]

G|--------------------------------------------------------------|
D|------------------------------------------------------5-4-----|
A|5--5-5-5-5-5-5-5--5-5-5-5-5-5-5-5--5-5-5-5-5-5--5-5-5-----7-5-|
D|--------------------------------------------------------------|

G|------------------------------------------------------------|
D|------------------------------------------------------------|
A|2--2-2-2-2-2-2--2-2-2-2-2-2-2-------------------------------|
D|------------------------------5--5-5-5-5-5-5--5-5-5-5-5-5-5-|

G|------------------------------------------------------------|
D|------------------------------------------------------------|
A|5--5-5-5-5-5-5--5-5-5-5-5-5-5-5--5-5-5-5-5-5--5-5-5-5-5-5-5-|
D|------------------------------------------------------------|

G|------------------------------------------------------------------------------------------|
D|------------------------------------------------------------------------------------------|
A|2--2-2-2-2-2-2--2-2-2-2-2-2-2-------------------------------------------------------------|
D|------------------------------5--5-5-5-5-5-5--5-5-5-5-5-5-5-7--7-7-7-7-7-7-7-7-7-7-7-7-7-7|


[Chorus]

G|------------------------------------------------------------|
D|------------------------------------------------------------|
A|5--5-5-5-5-5------------------------------------------------|
D|-------------7--7-7-7-7-7-7-7-5--5-5-5-5-5-5--5-5-5-5-5-5-5-|

G|-----------------------------------------------------------|
D|-----------------------------------------------------------|
A|5--5-5-5-5-5-----------------------------------------------|
D|-------------7--7-7-7-7-7-7-7-9-9-9-9--5--5--5-5-5-5-5-5-5-|

G|------------------------------------------------------------|
D|------------------------------------------------------------|
A|5--5-5-5-5-5------------------------------------------------|
D|-------------7--7-7-7-7-7-7-7-9--9-9-9-9-9-5--5-5-5-5-5-5-5-|

G|--------------------------------------------------------|
D|--------------------------------------------------------|
A|5--5-5-5-5-5--------------------------------------------|
D|-------------7--7-7-7-7-7-7-7-9-12--9--7--5--7--9--5-7--|


[Interlude]

G|--------------------------------------------------------|
D|--------------------------------------------------------|
A|5--5-5-5-5----------------------------------------------|
D|------------7--7-7-7-7-7---9-9-9-9--7--7--7-7-7-7-7-7-7-|

G|----------------------------------------------------------|
D|--------------------------------------------------5-4-----|
A|5--5-5-5-5-------------------5-5-5-5------------------7-5-|
D|------------7--7-7-7-7-7-7-7----------4--5--5-5-5---------|

G|--------------------------------------------------------|
D|--------------------------------------------------------|
A|5--5-5-5-5----------------------------------------------|
D|------------7--7-7-7-7-7---9-9-9-9--7--7--7-7-7-7-7-7-7-|

G|------------------------------------------------------|
D|------------------------------------------------------|
A|5--5-5-5-5--------------------------------------------|
D|------------7--7-7-7-7-7---5--5-5-5-5-5-5-5-7-7--7-7--|


[Verse 2]

G|--------------------------------------------------------------|
D|------------------------------------------------------5-4-----|
A|5--5-5-5-5-5-5-5--5-5-5-5-5-5-5-5--5-5-5-5-5-5--5-5-5-----7-5-|
D|--------------------------------------------------------------|

G|--------------------------------------------------------------|
D|--------------------------------------------------------------|
A|2--2-2-2-2-2-2--2-2-2-2-2-2-2-----------------------------5---|
D|------------------------------5--5-5-5-5-5-5--5-5-5-5-5-5-----|

G|---------------------------------------------------------------------------------------------|
D|---------------------------------------------------------------------------------------------|
A|5--5--5--5--5--5-5---------------------------------------------------------------------------|
D|--------------------7---7--7--7--7--7--7-7--9---9--9--9--9--9--9-9--5---5--5--5--5--5--5-5---|

G|-------------------------------|
D|-------------------------------|
A|-------------------------------|
D|7--7-7-7-7-7-7-7-7-7-7-7-7-7-7-|


[Chorus]

G|------------------------------------------------------------|
D|------------------------------------------------------------|
A|5--5-5-5-5-5------------------------------------------------|
D|-------------7--7-7-7-7-7-7-7-5--5-5-5-5-5-5--5-5-5-5-5-5-5-|

G|-----------------------------------------------------------|
D|-----------------------------------------------------------|
A|5--5-5-5-5-5-----------------------------------------------|
D|-------------7--7-7-7-7-7-7-7-9-9-9-9--5--5--5-5-5-5-5-5-5-|

G|------------------------------------------------------------|
D|------------------------------------------------------------|
A|5--5-5-5-5-5------------------------------------------------|
D|-------------7--7-7-7-7-7-7-7-9--9-9-9-9-9-5--5-5-5-5-5-5-5-|

G|--------------------------------------------------------|
D|--------------------------------------------------------|
A|5--5-5-5-5-5--------------------------------------------|
D|-------------7--7-7-7-7-7-7-7-9-12--9--7--5--7--9--5-7--|


[Bridge]

G|--------------------|
D|--------------------|
A|5-------------------|
D|--------------------|

G|----14---12---11---12---11---9---7------14---12---11---12---11---12-/14-14--|
D|0-0----0----0----0----0----0---0----0-0----0----0----0----0----0------------|
A|----------------------------------------------------------------------------|
D|----------------------------------------------------------------------------|

G|----14---12---11---12---11---9---7----|
D|9-9----9----9----9----9----9---9----7-|
A|--------------------------------------|
D|--------------------------------------|


[Chorus]

G|------------------------------------------------------------|
D|------------------------------------------------------------|
A|5--5-5-5-5-5------------------------------------------------|
D|-------------7--7-7-7-7-7-7-7-5--5-5-5-5-5-5--5-5-5-5-5-5-5-|

G|-----------------------------------------------------------|
D|-----------------------------------------------------------|
A|5--5-5-5-5-5-----------------------------------------------|
D|-------------7--7-7-7-7-7-7-7-9-9-9-9--5--5--5-5-5-5-5-5-5-|

G|------------------------------------------------------------|
D|------------------------------------------------------------|
A|5--5-5-5-5-5------------------------------------------------|
D|-------------7--7-7-7-7-7-7-7-9--9-9-9-9-9-5--5-5-5-5-5-5-5-|

G|--------------------------------------------------------|
D|--------------------------------------------------------|
A|5--5-5-5-5-5--------------------------------------------|
D|-------------7--7-7-7-7-7-7-7-9-12--9--7--5--7--9--5-7--|


[Outro]

G|--------------------------------------------------------|
D|--------------------------------------------------------|
A|5--5-5-5-5----------------------------------------------|
D|------------7--7-7-7-7-7---9-9-9-9--7--7--7-7-7-7-7-7-7-|

G|----------------------------------------------------------|
D|--------------------------------------------------5-4-----|
A|5--5-5-5-5-------------------5-5-5-5------------------7-5-|
D|------------7--7-7-7-7-7-7-7----------4--5--5-5-5---------|

G|--------------------------------------------------------|
D|--------------------------------------------------------|
A|5--5-5-5-5----------------------------------------------|
D|------------7--7-7-7-7-7---9-9-9-9--7--7--7-7-7-7-7-7-7-|

G|--------------------------------------------------------|
D|--------------------------------------------------------|
A|5--5-5-5-5--------------------------------------------5\|
D|------------7--7-7-7-7-7---5--5-5-5-5-5-5-5-7-7--7-7----|



************************************

| /  Slide up
| \  Slide down

************************************

            
            
Suggest correction
Creating personal tab
Creating personal tab
You can edit any tab online and save it as your Personal.

You can edit, replace or remove any tab part or add personal notes – all changes will be seen only by you.

Personal tabs can be accessed anytime from any device, even offline.
Learn more »
Give kudos to tab author, rate the tab!
1 2 3 4 5
comments
print report bad tab
guest
You may want to rate the tab now too:
select rating
Wanna post a correction for this tab? Suggest correction