Oops, an error
Loading. Please wait.

Set Free tab

version 2
version 2

Whole song

34 views 1 this week
no commentswrite comment
1 2 3 4 5
3 more votes to show rating
add to favorites
×
Save as Personal and add changes to this tab that will be seen only by you. Learn more ›
×
You can save this tab as Personal to edit and correct it or add notes. All changes will be seen only by you. Learn more »
launch autoscroll
font size
0
reset
how to read this tab
guitar tuner
edit
Autoscroll
slow
fast
+/-
esc
set tempo
stop
[Intro]

e|--------------------------------------------------------|
B|--------------------------------------------------------|
G|7--7-7-7-7----------------------------------------------|
D|7--7-7-7-7--7--7-7-7-7-7---9-9-9-9--7--7--7-7-7-7-7-7-7-|
A|5--5-5-5-5--7--7-7-7-7-7---9-9-9-9--7--7--7-7-7-7-7-7-7-|
D|------------7--7-7-7-7-7---9-9-9-9--7--7--7-7-7-7-7-7-7-|

e|--------------------------------------------------------|
B|--------------------------------------------------------|
G|7--7-7-7-7-----------------7-7-7-7----------------------|
D|7--7-7-7-7--7--7-7-7-7-7---7-7-7-7--4--5--5-5-5-5-5-5-5-|
A|5--5-5-5-5--7--7-7-7-7-7---5-5-5-5--4--5--5-5-5-5-5-5-5-|
D|------------7--7-7-7-7-7------------4--5--5-5-5-5-5-5-5-|

e|--------------------------------------------------------|
B|--------------------------------------------------------|
G|7--7-7-7-7----------------------------------------------|
D|7--7-7-7-7--7--7-7-7-7-7---9-9-9-9--7--7--7-7-7-7-7-7-7-|
A|5--5-5-5-5--7--7-7-7-7-7---9-9-9-9--7--7--7-7-7-7-7-7-7-|
D|------------7--7-7-7-7-7---9-9-9-9--7--7--7-7-7-7-7-7-7-|
                           
                                PM----------|
e|--------------------------------------------------------|
B|--------------------------------------------------------|
G|7--7-7-7-7--------------------------------------------7\|
D|7--7-7-7-7--7--7-7-7-7-7---5--5-5-5-5-5-5-5-7-7--7-7--7\|
A|5--5-5-5-5--7--7-7-7-7-7---5--5-5-5-5-5-5-5-7-7--7-7--5\|
D|------------7--7-7-7-7-7---5--5-5-5-5-5-5-5-7-7--7-7----|


[Chorus]

e|------------------------------------------------------------|
B|------------------------------------------------------------|
G|7--7-7-7-7-7------------------------------------------------|
D|7--7-7-7-7-7-7--7-7-7-7-7-7-7-5--5-5-5-5-5-5--5-5-5-5-5-5-5-|
A|5--5-5-5-5-5-7--7-7-7-7-7-7-7-5--5-5-5-5-5-5--5-5-5-5-5-5-5-|
D|-------------7--7-7-7-7-7-7-7-5--5-5-5-5-5-5--5-5-5-5-5-5-5-|

e|-----------------------------------------------------------|
B|-----------------------------------------------------------|
G|7--7-7-7-7-7-----------------------------------------------|
D|7--7-7-7-7-7-7--7-7-7-7-7-7-7-9-9-9-9--5--5--5-5-5-5-5-5-5-|
A|5--5-5-5-5-5-7--7-7-7-7-7-7-7-9-9-9-9--5--5--5-5-5-5-5-5-5-|
D|-------------7--7-7-7-7-7-7-7-9-9-9-9--5--5--5-5-5-5-5-5-5-|

e|------------------------------------------------------------|
B|------------------------------------------------------------|
G|7--7-7-7-7-7------------------------------------------------|
D|7--7-7-7-7-7-7--7-7-7-7-7-7-7-9--9-9-9-9-9-5--5-5-5-5-5-5-5-|
A|5--5-5-5-5-5-7--7-7-7-7-7-7-7-9--9-9-9-9-9-5--5-5-5-5-5-5-5-|
D|-------------7--7-7-7-7-7-7-7-9--9-9-9-9-9-5--5-5-5-5-5-5-5-|

e|--------------------------------------------------------|
B|--------------------------------------------------------|
G|7--7-7-7-7-7--------------------------------------------|
D|7--7-7-7-7-7-7--7-7-7-7-7-7-7-9-12--9--7--5--7--9--5-7--|
A|5--5-5-5-5-5-7--7-7-7-7-7-7-7-9-12--9--7--5--7--9--5-7--|
D|-------------7--7-7-7-7-7-7-7-9-12--9--7--5--7--9--5-7--|


[Interlude]

e|--------------------------------------------------------|
B|--------------------------------------------------------|
G|7--7-7-7-7----------------------------------------------|
D|7--7-7-7-7--7--7-7-7-7-7---9-9-9-9--7--7--7-7-7-7-7-7-7-|
A|5--5-5-5-5--7--7-7-7-7-7---9-9-9-9--7--7--7-7-7-7-7-7-7-|
D|------------7--7-7-7-7-7---9-9-9-9--7--7--7-7-7-7-7-7-7-|

e|--------------------------------------------------------|
B|--------------------------------------------------------|
G|7--7-7-7-7-----------------7-7-7-7----------------------|
D|7--7-7-7-7--7--7-7-7-7-7---7-7-7-7--4--5--5-5-5-5-5-5-5-|
A|5--5-5-5-5--7--7-7-7-7-7---5-5-5-5--4--5--5-5-5-5-5-5-5-|
D|------------7--7-7-7-7-7------------4--5--5-5-5-5-5-5-5-|

e|--------------------------------------------------------|
B|--------------------------------------------------------|
G|7--7-7-7-7----------------------------------------------|
D|7--7-7-7-7--7--7-7-7-7-7---9-9-9-9--7--7--7-7-7-7-7-7-7-|
A|5--5-5-5-5--7--7-7-7-7-7---9-9-9-9--7--7--7-7-7-7-7-7-7-|
D|------------7--7-7-7-7-7---9-9-9-9--7--7--7-7-7-7-7-7-7-|
                           
                                PM----------|
e|--------------------------------------------------------|
B|--------------------------------------------------------|
G|7--7-7-7-7--------------------------------------------7\|
D|7--7-7-7-7--7--7-7-7-7-7---5--5-5-5-5-5-5-5-7-7--7-7--7\|
A|5--5-5-5-5--7--7-7-7-7-7---5--5-5-5-5-5-5-5-7-7--7-7--5\|
D|------------7--7-7-7-7-7---5--5-5-5-5-5-5-5-7-7--7-7----|


[Verse 2]

e|----------------------------------------------------------------------------------------------------|
B|----------------------------------------------------------------------------------------------------|
G|7---7--7--7--7--7--7-7------------------------------------------------------------------------------|
D|7---7--7--7--7--7--7-7--7---7--7--7--7--7--7-7--9---9--9--9--9--9--9-9--5---5--5--5--5--5--5-5---7--|
A|5---5--5--5--5--5--5-5--7---7--7--7--7--7--7-7--9---9--9--9--9--9--9-9--5---5--5--5--5--5--5-5---7--|
D|------------------------7---7--7--7--7--7--7-7--9---9--9--9--9--9--9-9--5---5--5--5--5--5--5-5---7--|

  PM--------|
e|----------------------------|
B|----------------------------|
G|----------------------------|
D|7-7-7-7-7-7-7-7-7-7-7-7-7-7-|
A|7-7-7-7-7-7-7-7-7-7-7-7-7-7-|
D|7-7-7-7-7-7-7-7-7-7-7-7-7-7-|


[Chorus]

e|------------------------------------------------------------|
B|------------------------------------------------------------|
G|7--7-7-7-7-7------------------------------------------------|
D|7--7-7-7-7-7-7--7-7-7-7-7-7-7-5--5-5-5-5-5-5--5-5-5-5-5-5-5-|
A|5--5-5-5-5-5-7--7-7-7-7-7-7-7-5--5-5-5-5-5-5--5-5-5-5-5-5-5-|
D|-------------7--7-7-7-7-7-7-7-5--5-5-5-5-5-5--5-5-5-5-5-5-5-|

e|-----------------------------------------------------------|
B|-----------------------------------------------------------|
G|7--7-7-7-7-7-----------------------------------------------|
D|7--7-7-7-7-7-7--7-7-7-7-7-7-7-9-9-9-9--5--5--5-5-5-5-5-5-5-|
A|5--5-5-5-5-5-7--7-7-7-7-7-7-7-9-9-9-9--5--5--5-5-5-5-5-5-5-|
D|-------------7--7-7-7-7-7-7-7-9-9-9-9--5--5--5-5-5-5-5-5-5-|

e|------------------------------------------------------------|
B|------------------------------------------------------------|
G|7--7-7-7-7-7------------------------------------------------|
D|7--7-7-7-7-7-7--7-7-7-7-7-7-7-9--9-9-9-9-9-5--5-5-5-5-5-5-5-|
A|5--5-5-5-5-5-7--7-7-7-7-7-7-7-9--9-9-9-9-9-5--5-5-5-5-5-5-5-|
D|-------------7--7-7-7-7-7-7-7-9--9-9-9-9-9-5--5-5-5-5-5-5-5-|

e|--------------------------------------------------------|
B|--------------------------------------------------------|
G|7--7-7-7-7-7--------------------------------------------|
D|7--7-7-7-7-7-7--7-7-7-7-7-7-7-9-12--9--7--5--7--9--5-7--|
A|5--5-5-5-5-5-7--7-7-7-7-7-7-7-9-12--9--7--5--7--9--5-7--|
D|-------------7--7-7-7-7-7-7-7-9-12--9--7--5--7--9--5-7--|


[Bridge]

e|------------|
B|------------|
G|7-----------|
D|7-----------|
A|5-----------|
D|------------|


[Chorus]

e|------------------------------------------------------------|
B|------------------------------------------------------------|
G|7--7-7-7-7-7------------------------------------------------|
D|7--7-7-7-7-7-7--7-7-7-7-7-7-7-5--5-5-5-5-5-5--5-5-5-5-5-5-5-|
A|5--5-5-5-5-5-7--7-7-7-7-7-7-7-5--5-5-5-5-5-5--5-5-5-5-5-5-5-|
D|-------------7--7-7-7-7-7-7-7-5--5-5-5-5-5-5--5-5-5-5-5-5-5-|

e|-----------------------------------------------------------|
B|-----------------------------------------------------------|
G|7--7-7-7-7-7-----------------------------------------------|
D|7--7-7-7-7-7-7--7-7-7-7-7-7-7-9-9-9-9--5--5--5-5-5-5-5-5-5-|
A|5--5-5-5-5-5-7--7-7-7-7-7-7-7-9-9-9-9--5--5--5-5-5-5-5-5-5-|
D|-------------7--7-7-7-7-7-7-7-9-9-9-9--5--5--5-5-5-5-5-5-5-|

e|------------------------------------------------------------|
B|------------------------------------------------------------|
G|7--7-7-7-7-7------------------------------------------------|
D|7--7-7-7-7-7-7--7-7-7-7-7-7-7-9--9-9-9-9-9-5--5-5-5-5-5-5-5-|
A|5--5-5-5-5-5-7--7-7-7-7-7-7-7-9--9-9-9-9-9-5--5-5-5-5-5-5-5-|
D|-------------7--7-7-7-7-7-7-7-9--9-9-9-9-9-5--5-5-5-5-5-5-5-|

e|--------------------------------------------------------|
B|--------------------------------------------------------|
G|7--7-7-7-7-7--------------------------------------------|
D|7--7-7-7-7-7-7--7-7-7-7-7-7-7-9-12--9--7--5--7--9--5-7--|
A|5--5-5-5-5-5-7--7-7-7-7-7-7-7-9-12--9--7--5--7--9--5-7--|
D|-------------7--7-7-7-7-7-7-7-9-12--9--7--5--7--9--5-7--|


[Outro]

e|--------------------------------------------------------|
B|--------------------------------------------------------|
G|7--7-7-7-7----------------------------------------------|
D|7--7-7-7-7--7--7-7-7-7-7---9-9-9-9--7--7--7-7-7-7-7-7-7-|
A|5--5-5-5-5--7--7-7-7-7-7---9-9-9-9--7--7--7-7-7-7-7-7-7-|
D|------------7--7-7-7-7-7---9-9-9-9--7--7--7-7-7-7-7-7-7-|

e|--------------------------------------------------------|
B|--------------------------------------------------------|
G|7--7-7-7-7-----------------7-7-7-7----------------------|
D|7--7-7-7-7--7--7-7-7-7-7---7-7-7-7--4--5--5-5-5-5-5-5-5-|
A|5--5-5-5-5--7--7-7-7-7-7---5-5-5-5--4--5--5-5-5-5-5-5-5-|
D|------------7--7-7-7-7-7------------4--5--5-5-5-5-5-5-5-|

e|--------------------------------------------------------|
B|--------------------------------------------------------|
G|7--7-7-7-7----------------------------------------------|
D|7--7-7-7-7--7--7-7-7-7-7---9-9-9-9--7--7--7-7-7-7-7-7-7-|
A|5--5-5-5-5--7--7-7-7-7-7---9-9-9-9--7--7--7-7-7-7-7-7-7-|
D|------------7--7-7-7-7-7---9-9-9-9--7--7--7-7-7-7-7-7-7-|
                           
                                PM----------|
e|--------------------------------------------------------|
B|--------------------------------------------------------|
G|7--7-7-7-7--------------------------------------------7\|
D|7--7-7-7-7--7--7-7-7-7-7---5--5-5-5-5-5-5-5-7-7--7-7--7\|
A|5--5-5-5-5--7--7-7-7-7-7---5--5-5-5-5-5-5-5-7-7--7-7--5\|
D|------------7--7-7-7-7-7---5--5-5-5-5-5-5-5-7-7--7-7----|




************************************

| \  Slide down
| PM  Palm mute

************************************

            
            
Suggest correction
Creating personal tab
Creating personal tab
You can edit any tab online and save it as your Personal.

You can edit, replace or remove any tab part or add personal notes – all changes will be seen only by you.

Personal tabs can be accessed anytime from any device, even offline.
Learn more »
Give kudos to tab author, rate the tab!
1 2 3 4 5
comments
print report bad tab
guest
You may want to rate the tab now too:
select rating
Wanna post a correction for this tab? Suggest correction