Oops, an error
Loading. Please wait.

Without You bass

40 views 1 this week
no commentswrite comment
1 2 3 4 5
3 more votes to show rating
add to favorites
×
Save as Personal and add changes to this tab that will be seen only by you. Learn more ›
×
You can save this tab as Personal to edit and correct it or add notes. All changes will be seen only by you. Learn more »
launch autoscroll
font size
0
reset
guitar tuner
edit
Autoscroll
slow
fast
+/-
esc
set tempo
stop
[Intro]

G|----------------------------------------------------------------|
D|----------------------------------------------------------------|
A|3-3-3-3-3-3-3-3-3-3-3-3-3-3-3-3-8-8-8-8-8-8-8-8-8-8-8-8-8-8-8-8-|
D|----------------------------------------------------------------|

G|-----------------------------------------------------------------------------|
D|-----------------------------------------------10-10-10-10-10-10-10-10-10-10-|
A|--------------------------------8-8-8-10-10-10-------------------------------|
D|7-7-7-7-7-7-7-7-7-7-7-7-7-7-7-7----------------------------------------------|


[Verse 1]

G|------------------------------------------------------------|
D|------------------------------2-h3-3-------------------5-h7-|
A|3-----------------------------------------------------------|
D|--------------------------------------3-3-----3-3-3--3------|

G|-----------------------------------------------------------|
D|------------------------------5---3------------------------|
A|----------------------------------------------------3------|
D|7-7-----------------------------3----3-3------3-3-3---3-3--|

G|------------------------------------------------------------|
D|------------------------------2-h3-3-------------------5-h7-|
A|3-----------------------------------------------------------|
D|--------------------------------------3-3-----3-3-3--3------|

G|-----------------------------------------------------------|
D|------------------------------5---3------------------------|
A|-----------------------------------------------------------|
D|7-7-----------------------------3----3-3------3-3-3-2-3-2--|


[Pre-Chorus]

G|--------------------------------------------------------------------------------------------|
D|--------------------------------------------------------------------------------------------|
A|--------------------------------------------------------------------------------------------|
D|0--0--0--0--0--0--2--2--3--3--3--3--3--3--3--2--0--0--0--0--0--0--2--2--3--3--3--3--3--3----|


[Chorus]

G|----------------------------------------------------------------|
D|----------------------------------------------------------------|
A|3-3-3-3-3-3-3-3-3-3-3-3-3-3-3-3-8-8-8-8-8-8-8-8-8-8-8-8-8-8-8-8-|
D|----------------------------------------------------------------|

G|----------------------------------------------------------------|
D|----------------------------------------------------------------|
A|----------------------------------------------------------------|
D|7-7-7-7-7-7-7-7-7-7-7-7-7-7-7-7-3-3-3-3-3-3-3-3-3-3-3-3-3-3-3-3-|

G|----------------------------------------------------------------|
D|----------------------------------------------------------------|
A|3-3-3-3-3-3-3-3-3-3-3-3-3-3-3-3-8-8-8-8-8-8-8-8-8-8-8-8-8-8-8-8-|
D|----------------------------------------------------------------|

G|----------------------------------------------------------------|
D|----------------------------------------------------------------|
A|----------------------------------------------------------------|
D|7-7-7-7-7-7-7-7-7-7-7-7-7-7-7-7-3-3-3-3-3-3-3-3-3-3-3-3-3-3-3-3-|


[Interlude]

G|----------------|
D|----------------|
A|3---------------|
D|----------------|

G|--------------|
D|--------------|
A|--------------|
D|---------3----|


[Verse 1]

G|------------------------------------------------------------|
D|------------------------------2-h3-3-------------------5-h7-|
A|------------------------------------------------------------|
D|/10-----------------------------------3-3-----3-3-3--3------|

G|-----------------------------------------------------------|
D|------------------------------5---3------------------------|
A|----------------------------------------------------3------|
D|7-7-----------------------------3----3-3------3-3-3---3-3--|

G|------------------------------------------------------------|
D|------------------------------2-h3-3-------------------5-h7-|
A|3-----------------------------------------------------------|
D|--------------------------------------3-3-----3-3-3--3------|

G|-----------------------------------------------------------|
D|------------------------------5---3------------------------|
A|-----------------------------------------------------------|
D|7--7----------------------------3----3-3------3-3-3-2-3-2--|


[Pre-Chorus]

G|--------------------------------------------------------------------------------------------|
D|--------------------------------------------------------------------------------------------|
A|--------------------------------------------------------------------------------------------|
D|0--0--0--0--0--0--2--2--3--3--3--3--3--3--3--2--0--0--0--0--0--0--2--2--3--3--3--3--3--3----|


[Chorus]

G|----------------------------------------------------------------|
D|----------------------------------------------------------------|
A|3-3-3-3-3-3-3-3-3-3-3-3-3-3-3-3-8-8-8-8-8-8-8-8-8-8-8-8-8-8-8-8-|
D|----------------------------------------------------------------|

G|----------------------------------------------------------------|
D|----------------------------------------------------------------|
A|----------------------------------------------------------------|
D|7-7-7-7-7-7-7-7-7-7-7-7-7-7-7-7-3-3-3-3-3-3-3-3-3-3-3-3-3-3-3-3-|

G|----------------------------------------------------------------|
D|----------------------------------------------------------------|
A|3-3-3-3-3-3-3-3-3-3-3-3-3-3-3-3-8-8-8-8-8-8-8-8-8-8-8-8-8-8-8-8-|
D|----------------------------------------------------------------|

G|----------------------------------------------------------------|
D|----------------------------------------------------------------|
A|----------------------------------------------------------------|
D|7-7-7-7-7-7-7-7-7-7-7-7-7-7-7-7-3-3-3-3-3-3-3-3-3-3-3-3-3-3-3-3-|


[Bridge]

G|--------------------------------------------------------------|
D|---------------------7--------------------------10------7-----|
A|5\--------5---0-8-10---10-8-7-8----------8---------8-10---8-7-|
D|-----0-0--------------------------10--10-----10---------------|

G|----------------------------------------------------|
D|--------------5-------------------------------------|
A|5---3---5-------5-/7---8----------8------8----8-7---|
D|------------7--------------10--10-----10---10-------|

G|-------------------------------------------------------------|
D|---------------------7-----------------10-8----10------7-----|
A|5\--------5---0-8-10---10-8-7-----8----------8----8-10---8-7-|
D|-----0-0----------------------8------8-----------------------|

G|---------------------------------------------|
D|--------------5--------5-\3-------3----------|
A|5---3---5-------5-/7-------------------------|
D|------------7----------------3--3------------|

G|----------------------------------------------------------------|
D|----------------------------------------------------------------|
A|3---------------------------------------------------------------|
D|--------------------------------3-------------------------------|

G|----------------------------------------------------------------|
D|----------------------------------------------------------------|
A|----------------------------------------------------------------|
D|7-------------------------------3-------------------------------|

G|----------------------------------------------------------------|
D|----------------------------------------------------------------|
A|3-3-3-3-3-3-3-3-3-3-3-3-3-3-3-3-8-8-8-8-8-8-8-8-8-8-8-8-8-8-8-8-|
D|----------------------------------------------------------------|

G|----------------------------------------------------------------|
D|----------------------------------------------------------------|
A|----------------------------------------------------------------|
D|7-7-7-7-7-7-7-7-7-7-7-7-7-7-7-7-3-3-3-3-3-3-3-3-3-3-3-3-3-3-3-3-|


[Outro]

G|----------------------------------------------------------------|
D|----------------------------------------------------------------|
A|3-3-3-3-3-3-3-3-3-3-3-3-3-3-3-3-8-8-8-8-8-8-8-8-8-8-8-8-8-8-8-8-|
D|----------------------------------------------------------------|

G|----------------------------------------------------------------|
D|----------------------------------------------------------------|
A|----------------------------------------------------------------|
D|7-7-7-7-7-7-7-7-7-7-7-7-7-7-7-7-3---3---3-/5--------------------|



************************************

| h  Hammer-on
| /  Slide up
| \  Slide down

************************************

            
            
Suggest correction
Creating personal tab
Creating personal tab
You can edit any tab online and save it as your Personal.

You can edit, replace or remove any tab part or add personal notes – all changes will be seen only by you.

Personal tabs can be accessed anytime from any device, even offline.
Learn more »
Give kudos to tab author, rate the tab!
1 2 3 4 5
comments
print report bad tab
guest
You may want to rate the tab now too:
select rating
Wanna post a correction for this tab? Suggest correction