Oops, an error
Loading. Please wait.

The Love I Meant To Say tab

by Smash
304 views 15 this week
no commentswrite comment
1 2 3 4 5
2 more votes to show rating
add to favorites
×
Save as Personal and add changes to this tab that will be seen only by you. Learn more ›
×
You can save this tab as Personal to edit and correct it or add notes. All changes will be seen only by you. Learn more »
launch autoscroll
font size
0
reset
how to read this tab
guitar tuner
edit
Autoscroll
slow
fast
+/-
esc
set tempo
stop
About this tab version
As close as possible, the guitar (and in some places piano) tab from the show. If you feel like adding more bass notes in the second verse it might work to give it the fuller sound when you're playing unaccompanied. The D in the bridge is very dependent on timing, and i'm still not certain if it's right. Was this info helpful? Yes No
[Intro]
e|----------0--------|----------0--------|----------0--------|-------------------|
B|------3-------3----|------3-------3----|------3-------3----|--------3----------|
G|----2---2---2---2--|----2---2---2---2--|----2---2---2---2--|------2------------|
D|--0----------------|-------------------|-------------------|----0--------------|
A|-------------------|--4----------------|--2----------------|-------------------|
E|-------------------|-------------------|-------------------|--3----------------|

[Verse 1 + 2]
e|----------0--------|----------0--------|----------0-------|----------0-------|--------2-----0----|
B|------3-------3----|------3-------3----|------3-------3---|------3-------3---|------3-----3---3--|
G|----2---2---2---2--|----2---2---2---2--|----2---2---2---2-|----2---2---2---2-|----2--------------|
D|--0----------------|-------------------|------------------|------------------|--2----------------|
A|-------------------|--4----------------|--2---------------|--0---------------|-------------------|
E|-------------------|-------------------|------------------|------------------|-------------------|
Over,                      I can't believe it's over                I can't believe the love I left

e|----------0---2----|-------0-----0------|-------------------|----------0--------|----------0--------|
B|------3------------|--3------3-----3----|--3-----3-2--------|------3-------3----|------3-------3----|
G|----2---2----------|-----2-----2-----2--|----2--------------|----2---2---2---2--|----2---2---2---2--|
D|-------------------|--------------------|------2------------|--0----------------|-------------------|
A|--0----------------|--0-----------------|--0-------0--------|-------------------|--4----------------|
E|-------------------|--------------------|-------------------|-------------------|-------------------|
       To show some other day                                 Listen,                 I hope that you can

e|----------0-------|----------0-------|------------------|-----------------|--------0---2---|---------------|
B|------3-------3---|------3-------3---|--------3-----3---|------3-----2----|------3---3-----|---------------|
G|----2---2---2---2-|----2---2---2---2-|------2-----2-----|--------2--------|----2-----------|---------0-----|
D|------------------|------------------|----0-------------|----------0------|--0-------------|-0---0-----2---|
A|--2---------------|--0---------------|------------------|------0----------|----------------|---0---0-------|
E|------------------|------------------|--3---------------|-----------------|----------------|---------------|
hear me                  As I kneel down and pray        With the love I meant to say

e|----------0--------|----------0--------|----------0-------|----------0-------|--------2-----0----|
B|------3-------3----|------3-------3----|------3-------3---|------3-------3---|------3-----3---3--|
G|----2---2---2---2--|----2---2---2---2--|----2---2---2---2-|----2---2---2---2-|----2--------------|
D|--0----------------|-------------------|------------------|------------------|--2----------------|
A|-------------------|--4----------------|--2---------------|--0---------------|-------------------|
E|-------------------|-------------------|------------------|------------------|-------------------|
Shadows,                      You took away the shadows                 Before you life was black and white 

e|----------0---2----|-------0-----0------|-------------------|----------0--------|----------0--------|
B|------3------------|--3------3-----3----|--3-----3-2--------|--3---3-------3----|--3---3-------3----|
G|----2---2----------|-----2-----2-----2--|----2--------------|----2---2---2---2--|----2---2---2---2--|
D|-------------------|--------------------|------2------------|--0-------0--------|-------------------|
A|--0----------------|--0-----------------|--0-------0--------|-------------------|--4-------4--------|
E|-------------------|--------------------|-------------------|-------------------|-------------------|
       But now the room's gone gray                           Golden,                 All the love you gave 

e|----------0-------|----------0-------|------------------|------------------|----------0---2----|
B|--3---3-------3---|--3---3-------3---|--------3-----3---|--3-----2---------|------3------------|
G|----2---2---2---2-|----2---2---2---2-|------2-----2-----|----2-------------|----2---2---2---2--|
D|------------------|------------------|----0-------------|------0-----------|--0----------------|
A|--2-------2-------|--0-------0-------|------------------|--0-----0---------|-------------------|
E|------------------|------------------|--3---------------|------------------|-------------------|
was golden               Gold that I would gladly pay    To show the love I meant to say

e|----------0--------|
B|------3-------3----|
G|----2---2---2---2--|
D|-------------------|
A|--0----------------|
E|-------------------|

[Bridge]
    G                            Em7 
Oh music, you made me hear such music
                         D
Without you here to guide me
   Em7              A     A7
I feel like I will fly away

[Verse 3]
e|----------0--------|----------0--------|----------0-------|----------0-------|----------0-------|
B|------3-------3----|------3-------3----|------3-------3---|------3-------3---|--3---------------|
G|----2---2---2---2--|----2---2---2---2--|----2---2---2---2-|----2---2---2---2-|----2---2---------|
D|--0----------------|-------------------|------------------|------------------|------2-----------|
A|-------------------|--4----------------|--2---------------|--0---------------|--0---------------|
E|-------------------|-------------------|------------------|------------------|------------------|
         Sorry,             That's the word I wanna sing to you     The other word is stay       To hear the 

e|-----------------|----------0--------|----------0--------|--0---------------|
B|--3------2-------|------3-------3----|------3-------3----|--3---------------|
G|--2------0-------|----2---2---2---2--|----0---0---0---0--|--2---------------|
D|-----------------|--0----------------|--0----------------|--0---------------|
A|--0------0-------|-------------------|-------------------|------------------|
E|-----------------|-------------------|-------------------|------------------|
love I meant to say                                       [strum]

            
            
Suggest correction
Creating personal tab
Creating personal tab
You can edit any tab online and save it as your Personal.

You can edit, replace or remove any tab part or add personal notes – all changes will be seen only by you.

Personal tabs can be accessed anytime from any device, even offline.
Learn more »
Give kudos to tab author, rate the tab!
1 2 3 4 5
comments
print report bad tab
guest
You may want to rate the tab now too:
select rating
Wanna post a correction for this tab? Suggest correction