Oops, an error
Loading. Please wait.
We have an official All Star tab made by UG professional guitarists. Check out the tab »
×

All Star intro tab

version 1
version 1

Intro

Whole song

  • The vocal melody, played on the high strings.
  • A full tab of All Star by Smash Mouth that follows the lyrical notes.
  • This is the vocal melody tabbed for guitar.
12,841 views 369 this week
4 commentsread comments
1 2 3 4 5
x 57
add to favorites
×
Save as Personal and add changes to this tab that will be seen only by you. Learn more ›
×
You can save this tab as Personal to edit and correct it or add notes. All changes will be seen only by you. Learn more »
launch autoscroll
font size
0
reset
how to read this tab
guitar tuner
backing track
0:00
0:00
edit
Autoscroll
slow
fast
+/-
esc
set tempo
stop
Author
Difficulty
Tuning: Eb Ab Db Gb Bb eb (half-step down)

Intro to 'All Star' by Smash Mouth (vocal line)

eb|----------------------------------------------------------------------------|
Bb|---3-0-0--------1-0-0----------3-0-0--------------------3-0-0---------1-0-0-|
Gb|-0-------2-0-0--------2-2-0--0--------2-2-0-0-------0-0-------2-2-0-0-------|
Db|----------------------------------------------2-0---------------------------|
Ab|----------------------------------------------------------------------------|
Eb|----------------------------------------------------------------------------|

eb|----------------------------------------------------------------------------|
Bb|----------3-0-0-------------------------------------------------------------|
Gb|-2-2-0--0-------2-0-0-2-----------------------------------------------------|
Db|------------------------2---------------------------------------------------|
Ab|----------------------------------------------------------------------------|
Eb|----------------------------------------------------------------------------|

            
            
Suggest correction
Creating personal tab
Creating personal tab
You can edit any tab online and save it as your Personal.

You can edit, replace or remove any tab part or add personal notes – all changes will be seen only by you.

Personal tabs can be accessed anytime from any device, even offline.
Learn more »
comments
print report bad tab
4 comments total. Showing first comments.
+3 reply
stijnboer98 32 May 31, 2016 02:01 AM

I think its really good, but i'd use capo on 3rd

+7 reply
justinkwok1337 73 Sep 30, 2016 05:03 PM

Really accurate, would be cool if you could do the full song.

0 reply
hookey 116 Aug 21, 2017 09:10 AM

Full song like this would be cool

guest
You may want to rate the tab now too:
select rating
Wanna post a correction for this tab? Suggest correction