Oops, an error
Loading. Please wait.
We have an official All Star tab made by UG professional guitarists. Check out the tab »
×

All Star ukulele

version 2
version 2

Whole song

  • Tab for solo ukulele with optional percussive aspects.
  • This version is based on dodie clark and tessa violet's cover.
466 views 12 this week
no commentswrite comment
1 2 3 4 5
x 3
add to favorites
×
Save as Personal and add changes to this tab that will be seen only by you. Learn more ›
×
You can save this tab as Personal to edit and correct it or add notes. All changes will be seen only by you. Learn more »
launch autoscroll
font size
0
reset
transpose
0
reset
display chords
guitar tuner
backing track
0:00
0:00
edit
Autoscroll
slow
fast
+/-
esc
set tempo
stop
Author
Difficulty
About this tab version
Tab for solo ukulele with optional percussive aspects. Was this info helpful? Yes No
Strumming
There is no strumming pattern for this song yet. and get +5 IQ
Verse 1 and 2 for this tab are adaptations of the bassline so they may be more difficult 
to sing along to.
The picking pattern used in Verse 3 can be adapted for all Verses if you so wish.

The symbol 'x' means hit/tap the ukulele body with your thumb/fingers/palm, whichever 
suits you.

Standard tuning: gCEA

[Verse]

A|-----x-3-4---x-6-----x-1-2---x-4-----x-3-4---x-6-----x-1-2-------|
E|-2---x-------x---4---x-------x---2---x-------x---4---x-------9\--|
C|-----x-------x-------x-------x-------x-------x-------x-----------|  X4
g|-----x-------x-------x-------x-------x-------x-------x-----------|

[Chorus]

   F#              B               Cm              B
A|-1---1---1-1-1-1-2---2---2-2-2-2-3---3---3-3-3-3-2---2---2-2-2-2-|
E|-2---2---2-2-2-2-2---2---2-2-2-2-3---3---3-3-3-3-2---2---2-2-2-2-|
C|-1---1---1-1-1-1-3---3---3-3-3-3-3---3---3-3-3-3-3---3---3-3-3-3-|  X3
g|-3---3---3-3-3-3-4---4---4-4-4-4-5---5---5-5-5-5-4---4---4-4-4-4-|

   F#              E               B ~
A|-1---1---1-1-1-1-2---2---2-2-2-2-2-~-----------------------------|
E|-2---2---2-2-2-2-4---4---4-4-4-4-2-~-----------------------------|
C|-1---1---1-1-1-1-4---4---4-4-4-4-3-~-----------------------------|
g|-3---3---3-3-3-3-4---4---4-4-4-4-4-~-----------------------------|

[Verse]

A|-----x-3-4---x-6-----x-1-2---x-4-----x-3-4---x-6-----x-1-2-------|
E|-2---x-------x---4---x-------x---2---x-------x---4---x-------9\--|
C|-----x-------x-------x-------x-------x-------x-------x-----------|  X2
g|-----x-------x-------x-------x-------x-------x-------x-----------|

[Chorus]

A|-1---1---1-1-1-1-2---2---2-2-2-2-3---3---3-3-3-3-2---2---2-2-2-2-|
E|-2---2---2-2-2-2-2---2---2-2-2-2-3---3---3-3-3-3-2---2---2-2-2-2-|
C|-1---1---1-1-1-1-3---3---3-3-3-3-3---3---3-3-3-3-3---3---3-3-3-3-|  X3
g|-3---3---3-3-3-3-4---4---4-4-4-4-5---5---5-5-5-5-4---4---4-4-4-4-|

A|-1---1---1-1-1-1-2---2---2-2-2-2-2-~-----------------------------|
E|-2---2---2-2-2-2-4---4---4-4-4-4-2-~-----------------------------|
C|-1---1---1-1-1-1-4---4---4-4-4-4-3-~-----------------------------|
g|-3---3---3-3-3-3-4---4---4-4-4-4-4-~-----------------------------|

[Solo]

A|-4---1---------1---2-1-----------|
E|---------4-2-------------4-2-----|
C|-----------------------------3-1-|  x3
g|---------------------------------|

A|-4---1---------1---2-1-----------|
E|---------4-2-----------------9\--|
C|---------------------------------|
g|---------------------------------|

[Chorus]

A|-1---1---1-1-1-1-2---2---2-2-2-2-3---3---3-3-3-3-2---2---2-2-2-2-|
E|-2---2---2-2-2-2-2---2---2-2-2-2-3---3---3-3-3-3-2---2---2-2-2-2-|
C|-1---1---1-1-1-1-3---3---3-3-3-3-3---3---3-3-3-3-3---3---3-3-3-3-|  X3
g|-3---3---3-3-3-3-4---4---4-4-4-4-5---5---5-5-5-5-4---4---4-4-4-4-|

A|-1---1---1-1-1-1-2---2---2-2-2-2-|
E|-2---2---2-2-2-2-4---4---4-4-4-4-|
C|-1---1---1-1-1-1-4---4---4-4-4-4-|
g|-3---3---3-3-3-3-4---4---4-4-4-4-|

[Verse]

A|-----1-------4-------2-------2-------1-------4-------2-------2---|
E|---2---2---4---4---4---4---2---2---2---2---4---4---4---4---2---2-|
C|-1-------5-------3-------3-------1-------5-------3-------3-------|
g|-----------------------------------------------------------------|

A|-----1-------4-------2-------2-------1-------4---x---x---x---x---|
E|---2---2---4---4---4---4---2---2---2---2---4---4-x---x---x---x---|
C|-1-------5-------3-------3-------1-------5-------x---x---x---x---|
g|-------------------------------------------------x---x---x---x---|

A|-----1-------2-------3-------2-------1-------2-------3-------2---|
E|---2---2---2---2---3---3---2---2---2---2---2---2---3---3---2---2-|
C|-1-------3-------3-------3-------1-------3-------3-------3-------|
g|-----------------------------------------------------------------|

A|-----1-------2-------3-------2-------1-------2-------3-----------|
E|---2---2---2---2---3---3---2---2---2---2---2---2---3---3---2-9\--|
C|-1-------3-------3-------3-------1-------3-------3-------3-------|
g|-----------------------------------------------------------------|

[Chorus]

A|-1---1---1-1-1-1-2---2---2-2-2-2-3---3---3-3-3-3-2---2---2-2-2-2-|
E|-2---2---2-2-2-2-2---2---2-2-2-2-3---3---3-3-3-3-2---2---2-2-2-2-|
C|-1---1---1-1-1-1-3---3---3-3-3-3-3---3---3-3-3-3-3---3---3-3-3-3-|  X4
g|-3---3---3-3-3-3-4---4---4-4-4-4-5---5---5-5-5-5-4---4---4-4-4-4-|

A|-1---1---1-1-1-1-2---2---2-2-2-2-2-~-----------------------------|
E|-2---2---2-2-2-2-4---4---4-4-4-4-2-~-----------------------------|
C|-1---1---1-1-1-1-4---4---4-4-4-4-3-~-----------------------------|
g|-3---3---3-3-3-3-4---4---4-4-4-4-4-~-----------------------------|
Suggest correction
Creating personal tab
Creating personal tab
You can edit any tab online and save it as your Personal.

You can edit, replace or remove any tab part or add personal notes – all changes will be seen only by you.

Personal tabs can be accessed anytime from any device, even offline.
Learn more »
Give kudos to tab author, rate the tab!
1 2 3 4 5
comments
print report bad tab
guest
You may want to rate the tab now too:
select rating
Wanna post a correction for this tab? Suggest correction