Oops, an error
Loading. Please wait.
We have an official All Star tab made by UG professional guitarists. Check out the tab »
×

All Star tab

version 5
version 5

Whole song

  • The vocal melody, played on the high strings.
  • A full tab of All Star by Smash Mouth that follows the lyrical notes.
  • This is the vocal melody tabbed for guitar.

Video

577 views 42 this week
no commentswrite comment
1 2 3 4 5
x 5
add to favorites
×
Save as Personal and add changes to this tab that will be seen only by you. Learn more ›
×
You can save this tab as Personal to edit and correct it or add notes. All changes will be seen only by you. Learn more »
launch autoscroll
font size
0
reset
how to read this tab
guitar tuner
backing track
0:00
0:00
edit
Autoscroll
slow
fast
+/-
esc
set tempo
stop
About this tab version
A full tab of All Star by Smash Mouth that follows the lyrical notes. Was this info helpful? Yes No
THIS IS THE GUITAR 1 PART. GUITAR 2 WILL BE COMING SHORTLY (hopefully lol)

If you're struggling to play the notes in beat with the lyrics I'd suggest trying to play along with this
piano cover https://www.youtube.com/watch?v=WV_lxpkg3HM

[Verse]
e|---------------------------------------------------------------------------|
B|----2-------------------------------2--------------------------------------|
G|--------3-3-1-----4--3-3-1-1----------3-3-1-1------------------------------|
D|-4------------4-4------------4----4-----------4-4-1------------------------|
A|----------------------------------------------------4----------------------|
E|---------------------------------------------------------------------------|

e|---------------------------------------------------------------------------|
B|-----2-----------------------------2---------------------------------------|
G|---------3-3-1-1----4--3-3-1-1--------3-3-1-----1--------------------------|
D|-4-4------------4-4------------4-4----------4-4---1------------------------|
A|---------------------------------------------------------------------------|
E|---------------------------------------------------------------------------|

[Pre-Chorus]
e|---------------------------------------------------------------------------|
B|---------------------------------------------------------------------------|
G|------------------------------------------------3--------------------------|
D|-4---4-4-4-4-4-4-4-4-4-4-4----4-4-4-4-4-4-4-4-4---4------------------------|
A|---------------------------------------------------------------------------|
E|---------------------------------------------------------------------------|

e|---------------------------------------------------------------------------|
B|---2-2-2-----------------------------------2---4---2---4---2---------------|
G|-3-------4-4-3-3-3---3-------------------3---3---3---3---3---4-3-1-1---1---|
D|-------------------4--4-4-4-1--4-4-1---------------------------------4---4-|
A|-------------------------------------4-------------------------------------|
E|---------------------------------------------------------------------------|

e|---------------------------------------------------------------------------|
B|---------------------------------------------------------------------------|
G|------------------------3--------------------------------------------------|
D|---4-4-4-4-4-4-4------4---4-4-4-1-1-1--------------------------------------|
A|-4-------------------------------------------------------------------------|
E|---------------------------------------------------------------------------|

[Chorus]
e|---------------------------------------------------------------------------|
B|---------------------------------------------------------------------------|
G|-3--------------------------3--3---------------------3---------------------|
D|---4--4-1-4-4---4-1-4-4---4------4--4-1-4-4--4-1-4-4-----------------------|
A|---------------------------------------------------------------------------|
E|---------------------------------------------------------------------------|

e|---------------------------------------------------------------------------|
B|---2--2--------------------------------------------------------------------|
G|-3------4-3-1-1---------1---3-1--1---1-3-----------------------------------|
D|----------------4---4-4---4--------4-----1---------------------------------|
A|---------------------------------------------------------------------------|
E|---------------------------------------------------------------------------|

[Verse 2]
e|---------------------------------------------------------------------------|
B|------------------------------------------------------2-2------------------|
G|--------------------------------------------3-------3-----4-3-1-1----------|
D|-4-4-4-4----4-4-4-4-4-4-4---4-4-4-4-4-4-4-4---4-------------------4--------|
A|--------------------------4---------------------4-4------------------------|
E|---------------------------------------------------------------------------|

e|---------------------------------------------------------------------------|
B|------------------------------2-4-----------------2------------------------|
G|-------1-3-1---1------------3------3----------1-3---4-3-1-3-1--------------|
D|-4-4-4-------4---4-1--1-1-----------4-4-4-4--4----------------1-1----------|
A|--------------------------4-------4---------4---------------------4--------|
E|---------------------------------------------------------------------------|

e|---------------------------------------------------------------------------|
B|-4-2--2-2------------------------------------------------------------------|
G|------------3------------1-3----1-3----------------------------------------|
D|--------------4-4--4-4-4-----4-4---4-1-1-----------------------------------|
A|---------------------------------------------------------------------------|
E|---------------------------------------------------------------------------|

[Chorus]
e|---------------------------------------------------------------------------|
B|---------------------------------------------------------------------------|
G|-3--------------------------3--3---------------------3---------------------|
D|---4--4-1-4-4---4-1-4-4---4------4--4-1-4-4--4-1-4-4-----------------------|
A|---------------------------------------------------------------------------|
E|---------------------------------------------------------------------------|

e|---------------------------------------------------------------------------|
B|---2--2--------------------------------------------------------------------|
G|-3------4-3-1-1---------1---3-1--1---1-3-----------------------------------|
D|----------------4---4-4---4--------4-----1---------------------------------|
A|---------------------------------------------------------------------------|
E|---------------------------------------------------------------------------|

[Bridge/Solo]
e|-9------------------------------------9------------------------------------|
B|---11-9----11--12-11-12--9--------------11-9----11--12-11-12-9-------------|
G|--------11------------------11---------------11-----------------11---------|
D|-------------------------------13-11-------------------------------13-11---|
A|---------------------------------------------------------------------------|
E|---------------------------------------------------------------------------|

e|-9------------------------------------9------------------------------------|
B|---11-9----11--12-11-12--9--------------11-9----11--12-11-12-9-------------|
G|--------11------------------11---------------11-----------------11---------|
D|-------------------------------13-11-------------------------------13-11---|
A|---------------------------------------------------------------------------|
E|---------------------------------------------------------------------------|

[Chorus]
e|---------------------------------------------------------------------------|
B|---------------------------------------------------------------------------|
G|-3--------------------------3--3---------------------3---------------------|
D|---4--4-1-4-4---4-1-4-4---4------4--4-1-4-4--4-1-4-4-----------------------|
A|---------------------------------------------------------------------------|
E|---------------------------------------------------------------------------|

e|----------------2----------------------------------------------------------|
B|-----2--2---2-4------------------------------------------------------------|
G|---3------4-------------1---3-1--------------------------------------------|
D|--------------------4-4---4------------------------------------------------|
A|-4-------------------------------------------------------------------------|
E|---------------------------------------------------------------------------|

[Verse]
e|---------------------------------------------------------------------------|
B|----2-------------------------------2--------------------------------------|
G|--------3-3-1-----4--3-3-1-1---1------3-3-1-1------------------------------|
D|-4------------4-4------------4---4-----------4-4-1------------------------|
A|----------------------------------------------------4----------------------|
E|---------------------------------------------------------------------------|

e|---------------------------------------------------------------------------|
B|-2-2-2-------------2---------------------2---------------------------------|
G|--------3-1-3-1--1---4-3-4-3-4-------------3-3-1---1--3--------------------|
D|-------------------------------4-1---1-----------4-------------------------|
A|-----------------------------------4---4-----------------------------------|
E|---------------------------------------------------------------------------|

[Pre-chorus]
e|---------------------------------------------------------------------------|
B|-2-2-2-2-2-2-2-2-2-2-2-2--2-2-2-2-2-2-2-2-2-4-2----2-2-2-------------------|
G|-------------------------------------------------3-------4-4-3-3-3---3-----|
D|---------------------------------------------------------------------------|
A|-------------------------------------------------------------------4-------|
E|---------------------------------------------------------------------------|

e|---------------------------------------------------------------------------|
B|---------------------2---4---2---4---2-------------------------------------|
G|-4-4-4---4-4-------3---3---3---3---3---4-3-1-1---1-------------------------|
D|-------1-----1---------------------------------4---4-----------------------|
A|----------------4----------------------------------------------------------|
E|---------------------------------------------------------------------------|

e|---------------------------------------------------------------------------|
B|--------------------4-2-2-2-2-2-2------------------------------------------|
G|---------------------------------------------------------------------------|
D|---4-4-4-4-4-4-4-----------------------------------------------------------|
A|-4-----------------4-------------------------------------------------------|
E|---------------------------------------------------------------------------|

[Final Chorus]
e|---------------------------------------------------------------------------|
B|---------------------------------------------------------------------------|
G|-3--------------------------3--3---------------------3---------------------|
D|---4--4-1-4-4---4-1-4-4---4------4--4-1-4-4--4-1-4-4-----------------------|
A|---------------------------------------------------------------------------|
E|---------------------------------------------------------------------------|

e|----------------2-4-2------------------------------------------2-4-2-------|
B|-----2--2---2-4----------------2---------------------2-2---2-4-------------|
G|---3------4----------------1-----3--1---1-3--------3-----4-----------------|
D|-----------------------4-4---4--------4-----4------------------------------|
A|-4-----------------------------------------------4-------------------------|
E|---------------------------------------------------------------------------|

e|---------------------------------------------------------------------------|
B|---------2----------------------2-2---2-4----------------------------------|
G|-----1-----3-1---1-3----------3-----4--------------------------------------|
D|-4-4---4-------4-----4-----------------------------------------------------|
A|----------------------------4----------------------------------------------|
E|---------------------------------------------------------------------------|

[Outro]
e|---------------2-4-2-------------------------------------------------------|
B|-----2-2---2-4----------------2--------------------------------------------|
G|---3-----4----------------1-----3-1--1-3-----------------------------------|
D|----------------------4-4---4------4-----1---------------------------------|
A|-4-------------------------------------------------------------------------|
E|---------------------------------------------------------------------------|
Suggest correction
Creating personal tab
Creating personal tab
You can edit any tab online and save it as your Personal.

You can edit, replace or remove any tab part or add personal notes – all changes will be seen only by you.

Personal tabs can be accessed anytime from any device, even offline.
Learn more »
comments
print report bad tab
guest
You may want to rate the tab now too:
select rating
Wanna post a correction for this tab? Suggest correction