Oops, an error
Loading. Please wait.
We have an official All Star tab made by UG professional guitarists. Check out the tab »
×

All Star tab

version 6
version 6

Whole song

  • The vocal melody, played on the high strings.
  • A full tab of All Star by Smash Mouth that follows the lyrical notes.
  • This is the vocal melody tabbed for guitar.

Video

235 views 24 this week
no commentswrite comment
1 2 3 4 5
x 3
add to favorites
×
Save as Personal and add changes to this tab that will be seen only by you. Learn more ›
×
You can save this tab as Personal to edit and correct it or add notes. All changes will be seen only by you. Learn more »
launch autoscroll
font size
0
reset
how to read this tab
guitar tuner
backing track
0:00
0:00
edit
Autoscroll
slow
fast
+/-
esc
set tempo
stop
About this tab version
This is the vocal melody tabbed for guitar. Was this info helpful? Yes No
Artist : Smash Mouth
Song : All Star
Album : Astro Lounge
Release Date : 1999
Produced by : Eric Valentine

  Somebody once told me the world is gonna roll me
E|--------------------------------------------|
B|-----3--0--0-------------0----0--0----------|
G|-0--------------2--0--0-------------2--2--0-|
D|--------------------------------------------|
A|--------------------------------------------|
E|--------------------------------------------|

  I ain't the sharpest tool in the shed
E|---------------------------------|
B|----3--0--0----------------------|
G|-0-----------2--2--0--0----------|
D|-------------------------2--(2)p-|
A|---------------------------------|
E|---------------------------------|

  She was looking kind of dumb with her finger and her thumb
E|--------------------------------------------|
B|-------3--0--0--------------0----0--0-------|
G|----0-----------2--2--0--0-------------2--2-|
D|-4------------------------------------------|
A|--------------------------------------------|
E|--------------------------------------------|

  In the shape of an "L" on her forehead
E|----------------------------------|
B|-------3---0--0-------------------|
G|-0--0------------2---0-----2------|
D|------------------------4-------2-|
A|----------------------------------|
E|----------------------------------|

  Well, the years start coming and they don't stop coming
E|---------------------------------|
B|---------------------------------|
G|-0------0--0--0-0-0----0--0--0-0-|
D|-----2--------------4------------|
A|---------------------------------|
E|---------------------------------|

  Fed to the rules and I hit the ground running
E|------------------------------------|
B|------------------------------------|
G|-0---0-----0---0--0--0--0--0---2^p0-|
D|--------4---------------------------|
A|------------------------------------|
E|------------------------------------|

  Didn't make sense not to live for fun, Your brain gets smart but your head gets dumb
E|---------------------------------------------------------------|
B|-0-h1--3---1---0-----------------------------------------------|
G|------------------2--2---2---2----0--0---0---------0---0-------|
D|---------------------------------------------2--0----------2\0-|
A|---------------------------------------------------------------|
E|---------------------------------------------------------------|

  So much to do, so much to see, So what's wrong with taking the back streets?
E|-----------0--------------0-------------------------------------|
B|-0--3---0------0--3----0------0--3---1----0---------------------|
G|----------------------------------------------2----2---0--2---0-|
D|----------------------------------------------------------------|
A|----------------------------------------------------------------|
E|----------------------------------------------------------------|

  You'll never know if you don't go, You'll never shine if you don't glow
E|----------------------------------------------------------|
B|------------------------------------0---------------------|
G|----0--0--0---0--0--0---0--------2-----0--0---0-----------|
D|-0-----------------------------------------------2--2---2-|
A|----------------------------------------------------------|
E|----------------------------------------------------------|

[Chorus]
  Hey, now, you're an All Star, get your game on, go play
E|--------------------------------------------------------|
B|--------------------------------------------------------|
G|-2^--0------0-----0---0------0-----0---0------0------2^-|
D|---------------2----------------2-----------------------|
A|--------------------------------------------------------|
E|--------------------------------------------------------|

  Hey, now, you're a Rock Star, get the show on, get paid
E|--------------------------------------------------------|
B|--------------------------------------------------------|
G|-2^--0------0-----0---0------0-----0---0------0------2^-|
D|---------------2----------------2-----------------------|
A|--------------------------------------------------------|
E|--------------------------------------------------------|

  And all that glitters is gold
E|---------------------------------|
B|---------------------------------|
G|-----0----3------1---0-----------|
D|-0-----------------------2---2\0-|
A|---------------------------------|
E|---------------------------------|

  Only shooting stars break the mold
E|--------------------------------------------|
B|--------------------------------------------|
G|-0---0---2---0---4\2-------2---0------------|
D|--------------------------------------7/9\2-|
A|--------------------------------------------|
E|--------------------------------------------|

[Verse 2]
  It's a cool place and they say it gets colder
E|----------------------------------------|
B|----------------------------------------|
G|-0-----0---0----0--0--0--0--0---0--0--0-|
D|----2-----------------------------------|
A|----------------------------------------|
E|----------------------------------------|

  You're bundled up now wait 'til you get older, But the meteor men beg to differ
E|--------------------------------------------0--1--3--1---0-----------|
B|----0--0--0---0---0---0--0--0---2^-0--0--0-------------------0--2--0-|
G|-2-------------------------------------------------------------------|
D|---------------------------------------------------------------------|
A|---------------------------------------------------------------------|
E|---------------------------------------------------------------------|

  Judging by the hole in the satellite picture
E|--------------------------------------|
B|-------------0---------0--------------|
G|-------0--2------0--0-----------------|
D|-2--4---------------------2--2---2--2-|
A|--------------------------------------|
E|--------------------------------------|

  The ice we skate is getting pretty thin
E|-----------------------------------|
B|----0---3---3^-------0-------------|
G|---------------------------0--0--0-|
D|-0----------------0-----0----------|
A|-----------------------------------|
E|-----------------------------------|

  The water's getting warm so you might as well swim
E|--------------------------------------|
B|----0--0--3--3--1---1--1--0-----------|
G|--------------------------------0-----|
D|-0---------------------------2------2-|
A|--------------------------------------|
E|--------------------------------------|

  My world's on fire. How about yours?
E|----0------------------------|
B|--------3---3--3-------------|
G|--------------------2^-0---0-|
D|-2---------------------------|
A|-----------------------------|
E|-----------------------------|

  That's the way I like it and I'll never get bored.
E|--------------------------------------|
B|--------------------------------------|
G|-0--0--0--2--2^--0--0--0--2^----------|
D|-----------------------------2--2---2-|
A|--------------------------------------|
E|--------------------------------------|

[Chorus]
  Hey, now, you're an All Star, get your game on, go play
E|--------------------------------------------------------|
B|--------------------------------------------------------|
G|-2^--0------0-----0---0------0-----0---0------0------2^-|
D|---------------2----------------2-----------------------|
A|--------------------------------------------------------|
E|--------------------------------------------------------|

  Hey, now, you're a Rock Star, get the show on, get paid
E|--------------------------------------------------------|
B|--------------------------------------------------------|
G|-2^--0------0-----0---0------0-----0---0------0------2^-|
D|---------------2----------------2-----------------------|
A|--------------------------------------------------------|
E|--------------------------------------------------------|

  All that glitters is gold
E|-----------------------------|
B|-----------------------------|
G|-0----3------1---0-----------|
D|---------------------2---2\0-|
A|-----------------------------|
E|-----------------------------|

  Only shooting stars break the mold
E|--------------------------------------------|
B|--------------------------------------------|
G|-0---0---2---0---4\2-------2---0------------|
D|--------------------------------------7/9\2-|
A|--------------------------------------------|
E|--------------------------------------------|

[Chorus]
  Hey, now, you're an All Star, get your game on, go play
E|--------------------------------------------------------|
B|--------------------------------------------------------|
G|-2^--0------0-----0---0------0-----0---0------0------2^-|
D|---------------2----------------2-----------------------|
A|--------------------------------------------------------|
E|--------------------------------------------------------|

  Hey, now, you're a Rock Star, get the show on, get paid
E|--------------------------------------------------------|
B|--------------------------------------------------------|
G|-2^--0------0-----0---0------0-----0---0------0------2^-|
D|---------------2----------------2-----------------------|
A|--------------------------------------------------------|
E|--------------------------------------------------------|

  And all that glitters is gold
E|-------------------------0---(3)-|
B|-----0----3------1---3-----------|
G|-0-------------------------------|
D|---------------------------------|
A|---------------------------------|
E|---------------------------------|

  Only shooting stars
E|-------------------|
B|-----------------0-|
G|-0---0---2---0-----|
D|-------------------|
A|-------------------|
E|-------------------|

[Verse 3]
  Somebody once asked could I spare some change for gas
E|------------------------------------------------------|
B|------3---0---0------------------0------0---0---------|
G|-0-------------------2---0---0------------------2---2-|
D|------------------------------------------------------|
A|------------------------------------------------------|
E|------------------------------------------------------|

  I need to get myself away from this place
E|-------------------------------------------|
B|-------------3---0---0---0-----------------|
G|-0---2---0-------------------0---0---0-----|
D|-----------------------------------------0-|
A|-------------------------------------------|
E|-------------------------------------------|

  I said yep, what a concept, I could use a little fuel myself
E|-0----------------------------------------------------------------|
B|----3---3------0------0--------------3---1-----1--1--1--1---------|
G|-------------------0----------2---2-------------------------0-----|
D|----------------------------------------------------------------2-|
A|------------------------------------------------------------------|
E|------------------------------------------------------------------|

  And we could all use a little change
E|--------------------------------------------|
B|---------------3\0---0---0------------------|
G|-----------------------------2---0-------2^-|
D|-0---2---0----------------------------------|
A|--------------------------------------------|
E|--------------------------------------------|

  Well, the years start coming and they don't stop coming
E|-0----------------------------------------------|
B|-------0--3---3---3---3--3--3--3---3---3---3--3-|
G|------------------------------------------------|
D|------------------------------------------------|
A|------------------------------------------------|
E|------------------------------------------------|

  Fed to the rules and I hit the ground running
E|------------------------------------|
B|-3---3--3--3---3--3--3--3--3---3^-3-|
G|------------------------------------|
D|------------------------------------|
A|------------------------------------|
E|------------------------------------|

  Didn't make sense not to live for fun, Your brain gets smart but your head gets dumb
E|---------------------------------------------------------------|
B|-0-h1--3---1---0-----------------------------------------------|
G|------------------2--2---2---2----0--0---0---------0---0-------|
D|---------------------------------------------2--0----------2\0-|
A|---------------------------------------------------------------|
E|---------------------------------------------------------------|

  So much to do, so much to see, So what's wrong with taking the back streets?
E|-----------0--------------0-------------------------------------|
B|-0--3---0------0--3----0------0--3---1----0---------------------|
G|----------------------------------------------2----2---0--2---0-|
D|----------------------------------------------------------------|
A|----------------------------------------------------------------|
E|----------------------------------------------------------------|

  You'll never know if you don't go, You'll never shine if you don't glow
E|----------------------------(3)--(3)-----0---------------------|
B|--------------------------------------------3--3---3--3--3---3-|
G|----0--0--0---0--0--0---0-------------0------------------------|
D|-2-------------------------------------------------------------|
A|---------------------------------------------------------------|
E|---------------------------------------------------------------|

[Chorus]
  Hey, now, you're an All Star, get your game on, go play
E|--------------------------------------------------------|
B|--------------------------------------------------------|
G|-2^--0------0-----0---0------0-----0---0------0------2^-|
D|---------------2----------------2-----------------------|
A|--------------------------------------------------------|
E|--------------------------------------------------------|

  Hey, now, you're a Rock Star, get the show on, get paid
E|--------------------------------------------------------|
B|--------------------------------------------------------|
G|-2^--0------0-----0---0------0-----0---0------0------2^-|
D|---------------2----------------2-----------------------|
A|--------------------------------------------------------|
E|--------------------------------------------------------|

  And all that glitters is gold
E|-------------------------0--(3)/(5)\(3)-|
B|-----0----3------1---3------------------|
G|-0--------------------------------------|
D|----------------------------------------|
A|----------------------------------------|
E|----------------------------------------|

  Only shooting stars break the mold
E|--------------------------------------------|
B|-----------------3\0------------------------|
G|-0---0---2---0-------------2---0------2/4\0-|
D|--------------------------------------------|
A|--------------------------------------------|
E|--------------------------------------------|

  And all that glitters is gold
E|-------------------------0--(3)/(5)\(3)-|
B|-----0----3------1---3------------------|
G|-0--------------------------------------|
D|----------------------------------------|
A|----------------------------------------|
E|----------------------------------------|

  Only shooting stars break the mold
E|--------------------------------------------|
B|-----------------3\0------------------------|
G|-0---0---2---0-------------2---0------------|
D|--------------------------------------7/9\2-|
A|--------------------------------------------|
E|--------------------------------------------|

*****************

|  /  =  Slide up
|  \  =  Slide up
|  ^  =  Bend
|  () =  Ghost note

*****************

            
            
Suggest correction
Creating personal tab
Creating personal tab
You can edit any tab online and save it as your Personal.

You can edit, replace or remove any tab part or add personal notes – all changes will be seen only by you.

Personal tabs can be accessed anytime from any device, even offline.
Learn more »
Give kudos to tab author, rate the tab!
1 2 3 4 5
comments
print report bad tab
guest
You may want to rate the tab now too:
select rating
Wanna post a correction for this tab? Suggest correction