Oops, an error
Loading. Please wait.

Im A Believer Tab

version 1
version 1

Whole song

Interactive

55,520 views 87 this week
1 commentread comment
1 2 3 4 5
x 16
add to favorites
launch autoscroll
font size
0
reset
how to read this tab
guitar tuner
×
Best way to learn
"Im A Believer"
Autoscroll
slow
fast
+/-
esc
set tempo
stop
Author
Author/Artist: smash mouth
Title: im a believer
Transcribed by: paul
Email: aint_life_a_bitc_h@hotmail.com

                                       F#       C#       F#
e|-|--------------------------------|--2--22---4-44---2-22-2-22--|-------------|
B|-|--------------------------------|--2--22---6-66---2-22-2-22--|-------------|
G|-|--------------------------------|--3--33---6-66---3-33-3-33--|-x2----------|
D|-|------2-----2-----2-----2-----2-|--4--44---6-66---4-44-4-44--|-------------|
A|-|--2h4---2h4---2h4---2h4---2h4---|----------------------------|-------------|
E|-|--------------------------------|----------------------------|-------------|
                                            verse!chord stabs
   B     F#                   C#
-|-2-22--2--22---|---------444444444---|-------------------------------------|
-|-4-44--2--22---|---------666666666---|-------------------------------------|
-|-4-44--3--33---|-x3------666666666---|-------------------------------------|
-|-4-44--4--44---|---------666666666---|-------------------------------------|
-|---------------|---------------------|-------------------------------------|
-|---------------|---------------------|-------------------------------------|
   pre chorus         then end on
   F#  B    F#   B       F# C#  F#  E
-|--------------------|------------------|-----------------------------------|
-|--------------------|------------------|-----------------------------------|
-|-----444------4444--|-----6------------|-----------------------------------|
-|-444-444--44--4444--|--4--6---4---2----|-----------------------------------|
-|-444-222--44--2222--|--4--4---4---2----|-----------------------------------|
-|-222------22--------|--2------2---0----|-----------------------------------|
   c horus               im in love..      then intro riff

e|-|------------------------------------------------|--------------------------|
B|-|------------------------------------------------|--------------------------|
G|-|---------66666----------------------------------|------66666---------------|
D|-|-444444--66666----2-3-4-4-4-3-----2-3-44-4-3----|44444-66666----2-3-4-4-4--|
A|-|-444444--44444--4-------------4-4------------4--|44444-44444--4------------|
E|-|-222222-----------------------------------------|22222---------------------|
   then!!

e|--|-----------------------------|--------------------------------------------|
B|--|-----------------------------|--------------------------------------------|
G|--|--------------2--------------|--------------------------------------------|
D|--|-3------2-3-4---4-2---2-3----|--------------------------------------------|
A|--|---4--4-------------4-----4--|--------------------------------------------|
E|--|-----------------------------|--------------------------------------------|
         souds alright! shorld be ok!
just figure out the order and you will be fine
i used this for a studio recording where i live and it sounds damn near perfect!
add the intro riff in the right places! the last part of the wipeout bit
is a little fun improvise of those notes so dont hold me to it!lol
if your a smash mouth fan, i think they detune 1/2 step on all strings
so if your in a live situation and you have to detune, just detune and
add 1 to each note in my tab and it will sound the same!i tabbed it like this just to 
you having
to tune up again!



************************************

| x  Dead note
| h  Hammer-on

************************************
Suggest correction
comments
print report bad tab
1 comment total.
0 reply
SRV16 484 Jan 30, 2008 10:47 AM

very good tab, very much thanks im playing this live in 5days, best to know what to play

guest
You may want to rate the tab now too:
select rating
Wanna post a correction for this tab? Suggest correction