Oops, an error
Loading. Please wait.

Walking On The Sun bass

version 1
version 1

Whole song

Interactive

10,866 views 3 this week
3 commentsread comments
1 2 3 4 5
x 10
add to favorites
×
Save as Personal and add changes to this tab that will be seen only by you. Learn more ›
×
You can save this tab as Personal to edit and correct it or add notes. All changes will be seen only by you. Learn more »
launch autoscroll
font size
0
reset
guitar tuner
backing track
0:00
0:00
edit
Autoscroll
slow
fast
+/-
esc
set tempo
stop
Intro:                                                  x2
|-----------|---------------|-------------|------------|
|----3---5--|----5-----4----|---2-----4---|---5-----4--|
|-0--2-0-4--|----7-----5----|---3-----5---|---7-----5--|
|-----------|---------------|-------------|------------|

Verse:                        x11                     Repeat Verse
|----------0---|--2----------|   |------------|-----------|
|-------0------|-----2-0--2--|   |------0--0--|-2222-2222-|
|-0---3--------|-------------|   |-0--3-------|-----------|
|--------------|-------------|   |------------|-----------|


Its that ez

            
            
Suggest correction
Creating personal tab
Creating personal tab
You can edit any tab online and save it as your Personal.

You can edit, replace or remove any tab part or add personal notes – all changes will be seen only by you.

Personal tabs can be accessed anytime from any device, even offline.
Learn more »
comments
print report bad tab
3 comments total.
0 reply
DesiAletta 162 Aug 30, 2010 11:43 AM

It's tuned half step down, for anyone wondering why it doesn't sound right

0 reply
jiligier 182 Jun 16, 2013 10:02 PM

also

|-----------|---------------|
|----3---5--|----5-----4----|
|-0--2-0-4--|----7-----5----|
|-----------|---------------|

should be
|-----------|---------------|
|----2---4--|----5-----4----|
|-0--3-0-5--|----7-----5----|
|-----------|---------------|

0 reply
eromer0 10 Jul 06, 2014 05:53 PM

Lack of accuracy. Clearly wrong.

guest
Wanna post a correction for this tab? Suggest correction